  0
SECTION
  2
HEADER
  9
$ACADVER
  1
AC1015
  9
$ACADMAINTVER
 70
     6
  9
$DWGCODEPAGE
  3
ANSI_1252
  9
$INSBASE
 10
0.0
 20
0.0
 30
0.0
  9
$EXTMIN
 10
-200.0
 20
-6.000103215
 30
0.0
  9
$EXTMAX
 10
200.0
 20
6.000103215
 30
0.0
  9
$LIMMIN
 10
0.0
 20
0.0
  9
$LIMMAX
 10
420.0
 20
297.0
  9
$ORTHOMODE
 70
     0
  9
$REGENMODE
 70
     1
  9
$FILLMODE
 70
     1
  9
$QTEXTMODE
 70
     0
  9
$MIRRTEXT
 70
     1
  9
$LTSCALE
 40
1.0
  9
$ATTMODE
 70
     1
  9
$TEXTSIZE
 40
3.5
  9
$TRACEWID
 40
1.0
  9
$TEXTSTYLE
  7
Standard
  9
$CLAYER
  8
0
  9
$CELTYPE
  6
ByLayer
  9
$CECOLOR
 62
   256
  9
$CELTSCALE
 40
1.0
  9
$DISPSILH
 70
     0
  9
$DIMSCALE
 40
1.0
  9
$DIMASZ
 40
3.302
  9
$DIMEXO
 40
1.0
  9
$DIMDLI
 40
3.75
  9
$DIMRND
 40
0.0
  9
$DIMDLE
 40
0.0
  9
$DIMEXE
 40
1.0
  9
$DIMTP
 40
0.0
  9
$DIMTM
 40
0.0
  9
$DIMTXT
 40
3.5
  9
$DIMCEN
 40
2.5
  9
$DIMTSZ
 40
0.0
  9
$DIMTOL
 70
     0
  9
$DIMLIM
 70
     0
  9
$DIMTIH
 70
     1
  9
$DIMTOH
 70
     1
  9
$DIMSE1
 70
     0
  9
$DIMSE2
 70
     0
  9
$DIMTAD
 70
     1
  9
$DIMZIN
 70
     0
  9
$DIMBLK
  1

  9
$DIMASO
 70
     1
  9
$DIMSHO
 70
     1
  9
$DIMPOST
  1

  9
$DIMAPOST
  1

  9
$DIMALT
 70
     0
  9
$DIMALTD
 70
     3
  9
$DIMALTF
 40
0.0393700787
  9
$DIMLFAC
 40
1.0
  9
$DIMTOFL
 70
     1
  9
$DIMTVP
 40
0.0
  9
$DIMTIX
 70
     0
  9
$DIMSOXD
 70
     0
  9
$DIMSAH
 70
     0
  9
$DIMBLK1
  1

  9
$DIMBLK2
  1

  9
$DIMSTYLE
  2
ISO-25
  9
$DIMCLRD
 70
     0
  9
$DIMCLRE
 70
     0
  9
$DIMCLRT
 70
     0
  9
$DIMTFAC
 40
1.0
  9
$DIMGAP
 40
1.524
  9
$DIMJUST
 70
     0
  9
$DIMSD1
 70
     0
  9
$DIMSD2
 70
     0
  9
$DIMTOLJ
 70
     0
  9
$DIMTZIN
 70
     0
  9
$DIMALTZ
 70
     0
  9
$DIMALTTZ
 70
     0
  9
$DIMUPT
 70
     0
  9
$DIMDEC
 70
     2
  9
$DIMTDEC
 70
     2
  9
$DIMALTU
 70
     2
  9
$DIMALTTD
 70
     3
  9
$DIMTXSTY
  7
Standard
  9
$DIMAUNIT
 70
     0
  9
$DIMADEC
 70
     2
  9
$DIMALTRND
 40
0.0
  9
$DIMAZIN
 70
     0
  9
$DIMDSEP
 70
    44
  9
$DIMATFIT
 70
     3
  9
$DIMFRAC
 70
     0
  9
$DIMLDRBLK
  1

  9
$DIMLUNIT
 70
     2
  9
$DIMLWD
 70
    -2
  9
$DIMLWE
 70
    -2
  9
$DIMTMOVE
 70
     0
  9
$LUNITS
 70
     2
  9
$LUPREC
 70
     2
  9
$SKETCHINC
 40
1.0
  9
$FILLETRAD
 40
10.0
  9
$AUNITS
 70
     0
  9
$AUPREC
 70
     2
  9
$MENU
  1
.
  9
$ELEVATION
 40
0.0
  9
$PELEVATION
 40
0.0
  9
$THICKNESS
 40
0.0
  9
$LIMCHECK
 70
     0
  9
$CHAMFERA
 40
0.0
  9
$CHAMFERB
 40
0.0
  9
$CHAMFERC
 40
0.0
  9
$CHAMFERD
 40
0.0
  9
$SKPOLY
 70
     0
  9
$TDCREATE
 40
2458862.401229421
  9
$TDUCREATE
 40
2458862.401229421
  9
$TDUPDATE
 40
2458862.401249062
  9
$TDUUPDATE
 40
2458862.401249062
  9
$TDINDWG
 40
0.0000000116
  9
$TDUSRTIMER
 40
0.0000000116
  9
$USRTIMER
 70
     1
  9
$ANGBASE
 50
0.0
  9
$ANGDIR
 70
     0
  9
$PDMODE
 70
     0
  9
$PDSIZE
 40
-1.0
  9
$PLINEWID
 40
0.0
  9
$SPLFRAME
 70
     0
  9
$SPLINETYPE
 70
     6
  9
$SPLINESEGS
 70
     8
  9
$HANDSEED
  5
370
  9
$SURFTAB1
 70
     6
  9
$SURFTAB2
 70
     6
  9
$SURFTYPE
 70
     6
  9
$SURFU
 70
     6
  9
$SURFV
 70
     6
  9
$UCSBASE
  2

  9
$UCSNAME
  2

  9
$UCSORG
 10
0.0
 20
0.0
 30
0.0
  9
$UCSXDIR
 10
1.0
 20
0.0
 30
0.0
  9
$UCSYDIR
 10
0.0
 20
1.0
 30
0.0
  9
$UCSORTHOREF
  2

  9
$UCSORTHOVIEW
 70
     0
  9
$UCSORGTOP
 10
0.0
 20
0.0
 30
0.0
  9
$UCSORGBOTTOM
 10
0.0
 20
0.0
 30
0.0
  9
$UCSORGLEFT
 10
0.0
 20
0.0
 30
0.0
  9
$UCSORGRIGHT
 10
0.0
 20
0.0
 30
0.0
  9
$UCSORGFRONT
 10
0.0
 20
0.0
 30
0.0
  9
$UCSORGBACK
 10
0.0
 20
0.0
 30
0.0
  9
$PUCSBASE
  2

  9
$PUCSNAME
  2

  9
$PUCSORG
 10
0.0
 20
0.0
 30
0.0
  9
$PUCSXDIR
 10
1.0
 20
0.0
 30
0.0
  9
$PUCSYDIR
 10
0.0
 20
1.0
 30
0.0
  9
$PUCSORTHOREF
  2

  9
$PUCSORTHOVIEW
 70
     0
  9
$PUCSORGTOP
 10
0.0
 20
0.0
 30
0.0
  9
$PUCSORGBOTTOM
 10
0.0
 20
0.0
 30
0.0
  9
$PUCSORGLEFT
 10
0.0
 20
0.0
 30
0.0
  9
$PUCSORGRIGHT
 10
0.0
 20
0.0
 30
0.0
  9
$PUCSORGFRONT
 10
0.0
 20
0.0
 30
0.0
  9
$PUCSORGBACK
 10
0.0
 20
0.0
 30
0.0
  9
$USERI1
 70
     0
  9
$USERI2
 70
     0
  9
$USERI3
 70
     0
  9
$USERI4
 70
     0
  9
$USERI5
 70
     0
  9
$USERR1
 40
0.0
  9
$USERR2
 40
0.0
  9
$USERR3
 40
0.0
  9
$USERR4
 40
0.0
  9
$USERR5
 40
0.0
  9
$WORLDVIEW
 70
     1
  9
$SHADEDGE
 70
     3
  9
$SHADEDIF
 70
    70
  9
$TILEMODE
 70
     1
  9
$MAXACTVP
 70
    64
  9
$PINSBASE
 10
0.0
 20
0.0
 30
0.0
  9
$PLIMCHECK
 70
     0
  9
$PEXTMIN
 10
-200.0
 20
-20.0
 30
0.0
  9
$PEXTMAX
 10
200.0
 20
0.0
 30
0.0
  9
$PLIMMIN
 10
-231.1284046693
 20
-31.673151751
  9
$PLIMMAX
 10
231.1284046693
 20
295.1750972763
  9
$UNITMODE
 70
     0
  9
$VISRETAIN
 70
     1
  9
$PLINEGEN
 70
     0
  9
$PSLTSCALE
 70
     1
  9
$TREEDEPTH
 70
  3020
  9
$CMLSTYLE
  2
Standard
  9
$CMLJUST
 70
     0
  9
$CMLSCALE
 40
20.0
  9
$PROXYGRAPHICS
 70
     1
  9
$MEASUREMENT
 70
     1
  9
$CELWEIGHT
370
    -1
  9
$ENDCAPS
280
     0
  9
$JOINSTYLE
280
     0
  9
$LWDISPLAY
290
     1
  9
$INSUNITS
 70
     4
  9
$HYPERLINKBASE
  1

  9
$STYLESHEET
  1

  9
$XEDIT
290
     1
  9
$CEPSNTYPE
380
     0
  9
$PSTYLEMODE
290
     1
  9
$FINGERPRINTGUID
  2
{a628a831-3879-421b-a948-7ae570fafc36}
  9
$VERSIONGUID
  2
{FAEB1C32-E019-11D5-929B-00C0DF256EC4}
  9
$EXTNAMES
290
     1
  9
$PSVPSCALE
 40
0.0
  9
$OLESTARTUP
290
     0
  0
ENDSEC
  0
SECTION
  2
CLASSES
  0
CLASS
  1
ACDBDICTIONARYWDFLT
  2
AcDbDictionaryWithDefault
  3
ObjectDBX Classes
 90
        0
280
     0
281
     0
  0
CLASS
  1
VISUALSTYLE
  2
AcDbVisualStyle
  3
ObjectDBX Classes
 90
     4095
280
     0
281
     0
  0
CLASS
  1
MATERIAL
  2
AcDbMaterial
  3
ObjectDBX Classes
 90
     1153
280
     0
281
     0
  0
CLASS
  1
SCALE
  2
AcDbScale
  3
ObjectDBX Classes
 90
     1153
280
     0
281
     0
  0
CLASS
  1
TABLESTYLE
  2
AcDbTableStyle
  3
ObjectDBX Classes
 90
     4095
280
     0
281
     0
  0
CLASS
  1
MLEADERSTYLE
  2
AcDbMLeaderStyle
  3
ACDB_MLEADERSTYLE_CLASS
 90
     4095
280
     0
281
     0
  0
CLASS
  1
SUN
  2
AcDbSun
  3
SCENEOE
 90
     1153
280
     0
281
     0
  0
CLASS
  1
ACDBPLACEHOLDER
  2
AcDbPlaceHolder
  3
ObjectDBX Classes
 90
        0
280
     0
281
     0
  0
CLASS
  1
LAYOUT
  2
AcDbLayout
  3
ObjectDBX Classes
 90
        0
280
     0
281
     0
  0
ENDSEC
  0
SECTION
  2
TABLES
  0
TABLE
  2
VPORT
  5
8
330
0
100
AcDbSymbolTable
 70
     1
  0
VPORT
  5
29
330
8
100
AcDbSymbolTableRecord
100
AcDbViewportTableRecord
  2
*Active
 70
     0
 10
0.0
 20
0.0
 11
1.0
 21
1.0
 12
0.0
 22
0.0
 13
0.0
 23
0.0
 14
10.0
 24
10.0
 15
10.0
 25
10.0
 16
0.0
 26
0.0
 36
1.0
 17
0.0
 27
0.0
 37
0.0
 40
12.2402105586
 41
33.3327599264
 42
50.0
 43
0.0
 44
0.0
 50
0.0
 51
0.0
 71
     0
 72
   100
 73
     1
 74
     3
 75
     0
 76
     0
 77
     0
 78
     0
281
     0
 65
     1
110
0.0
120
0.0
130
0.0
111
1.0
121
0.0
131
0.0
112
0.0
122
1.0
132
0.0
 79
     0
146
0.0
  0
ENDTAB
  0
TABLE
  2
LTYPE
  5
5
330
0
100
AcDbSymbolTable
 70
     6
  0
LTYPE
  5
14
330
5
100
AcDbSymbolTableRecord
100
AcDbLinetypeTableRecord
  2
ByBlock
 70
     0
  3

 72
    65
 73
     0
 40
0.0
  0
LTYPE
  5
15
330
5
100
AcDbSymbolTableRecord
100
AcDbLinetypeTableRecord
  2
ByLayer
 70
     0
  3

 72
    65
 73
     0
 40
0.0
  0
LTYPE
  5
16
330
5
100
AcDbSymbolTableRecord
100
AcDbLinetypeTableRecord
  2
Continuous
 70
     0
  3
Solid line
 72
    65
 73
     0
 40
0.0
  0
LTYPE
  5
6E
330
5
100
AcDbSymbolTableRecord
100
AcDbLinetypeTableRecord
  2
HIDDEN
 70
     0
  3
Hidden __ __ __ __ __ __ __ __ __ __ __ __ __ __
 72
    65
 73
     2
 40
1.905
 49
1.27
 74
     0
 49
-0.635
 74
     0
  0
LTYPE
  5
6F
330
5
100
AcDbSymbolTableRecord
100
AcDbLinetypeTableRecord
  2
PHANTOM
 70
     0
  3
Phantom ______  __  __  ______  __  __  ______
 72
    65
 73
     6
 40
12.7
 49
6.35
 74
     0
 49
-1.27
 74
     0
 49
1.27
 74
     0
 49
-1.27
 74
     0
 49
1.27
 74
     0
 49
-1.27
 74
     0
  0
LTYPE
  5
70
330
5
100
AcDbSymbolTableRecord
100
AcDbLinetypeTableRecord
  2
CENTER
 70
     0
  3
Center ____ _ ____ _ ____ _ ____ _ ____ _ ____
 72
    65
 73
     4
 40
10.16
 49
6.35
 74
     0
 49
-1.27
 74
     0
 49
1.27
 74
     0
 49
-1.27
 74
     0
  0
LTYPE
  5
71
330
5
100
AcDbSymbolTableRecord
100
AcDbLinetypeTableRecord
  2
CENTERX2
 70
     0
  3
Center (2x) ________  __  ________  __  _____
 72
    65
 73
     4
 40
20.32
 49
12.7
 74
     0
 49
-2.54
 74
     0
 49
2.54
 74
     0
 49
-2.54
 74
     0
  0
LTYPE
  5
72
330
5
100
AcDbSymbolTableRecord
100
AcDbLinetypeTableRecord
  2
DOT2
 70
     0
  3
Dot (.5x) ........................................
 72
    65
 73
     2
 40
0.635
 49
0.0
 74
     0
 49
-0.635
 74
     0
  0
ENDTAB
  0
TABLE
  2
LAYER
  5
2
330
0
100
AcDbSymbolTable
 70
     1
  0
LAYER
  5
10
330
2
100
AcDbSymbolTableRecord
100
AcDbLayerTableRecord
  2
0
 70
     0
 62
     7
  6
Continuous
370
    -3
390
F
  0
ENDTAB
  0
TABLE
  2
STYLE
  5
3
330
0
100
AcDbSymbolTable
 70
     1
  0
STYLE
  5
11
330
3
100
AcDbSymbolTableRecord
100
AcDbTextStyleTableRecord
  2
Standard
 70
     0
 40
0.0
 41
1.0
 50
0.0
 71
     0
 42
3.5
  3
txt
  4

  0
ENDTAB
  0
TABLE
  2
VIEW
  5
6
330
0
100
AcDbSymbolTable
 70
     0
  0
ENDTAB
  0
TABLE
  2
UCS
  5
7
330
0
100
AcDbSymbolTable
 70
     0
  0
ENDTAB
  0
TABLE
  2
APPID
  5
9
330
0
100
AcDbSymbolTable
 70
     1
  0
APPID
  5
12
330
9
100
AcDbSymbolTableRecord
100
AcDbRegAppTableRecord
  2
ACAD
 70
     0
  0
ENDTAB
  0
TABLE
  2
DIMSTYLE
  5
A
330
0
100
AcDbSymbolTable
 70
     1
100
AcDbDimStyleTable
  0
DIMSTYLE
105
27
330
A
100
AcDbSymbolTableRecord
100
AcDbDimStyleTableRecord
  2
ISO-25
 70
     0
 41
2.5
 42
0.625
 43
3.75
 44
1.25
 73
     0
 74
     0
 77
     1
 78
     8
140
2.5
141
2.5
143
0.0393700787
147
0.625
171
     3
172
     1
178
     0
271
     2
272
     2
274
     3
278
    44
283
     0
284
     8
340
11
  0
ENDTAB
  0
TABLE
  2
BLOCK_RECORD
  5
1
330
0
100
AcDbSymbolTable
 70
     7
  0
BLOCK_RECORD
  5
1F
330
1
100
AcDbSymbolTableRecord
100
AcDbBlockTableRecord
  2
*Model_Space
340
22
  0
BLOCK_RECORD
  5
1B
330
1
100
AcDbSymbolTableRecord
100
AcDbBlockTableRecord
  2
*Paper_Space
340
1E
  0
BLOCK_RECORD
  5
23
330
1
100
AcDbSymbolTableRecord
100
AcDbBlockTableRecord
  2
*Paper_Space0
340
26
  0
BLOCK_RECORD
  5
185
330
1
100
AcDbSymbolTableRecord
100
AcDbBlockTableRecord
  2
*Paper_Space1
340
186
  0
BLOCK_RECORD
  5
1A7
330
1
100
AcDbSymbolTableRecord
100
AcDbBlockTableRecord
  2
*Paper_Space2
340
1A8
  0
BLOCK_RECORD
  5
1C9
330
1
100
AcDbSymbolTableRecord
100
AcDbBlockTableRecord
  2
*Paper_Space3
340
1CA
  0
BLOCK_RECORD
  5
20D
330
1
100
AcDbSymbolTableRecord
100
AcDbBlockTableRecord
  2
*Paper_Space4
340
20E
  0
BLOCK_RECORD
  5
28A
330
1
100
AcDbSymbolTableRecord
100
AcDbBlockTableRecord
  2
*Paper_Space5
340
28B
  0
BLOCK_RECORD
  5
2FA
330
1
100
AcDbSymbolTableRecord
100
AcDbBlockTableRecord
  2
*Paper_Space6
340
2FB
  0
ENDTAB
  0
ENDSEC
  0
SECTION
  2
BLOCKS
  0
BLOCK
  5
20
330
1F
100
AcDbEntity
  8
0
100
AcDbBlockBegin
  2
*Model_Space
 70
     0
 10
0.0
 20
0.0
 30
0.0
  3
*Model_Space
  1

  0
ENDBLK
  5
21
330
1F
100
AcDbEntity
  8
0
100
AcDbBlockEnd
  0
BLOCK
  5
1C
330
1B
100
AcDbEntity
 67
     1
  8
0
100
AcDbBlockBegin
  2
*Paper_Space
 70
     0
 10
0.0
 20
0.0
 30
0.0
  3
*Paper_Space
  1

  0
ENDBLK
  5
1D
330
1B
100
AcDbEntity
 67
     1
  8
0
100
AcDbBlockEnd
  0
BLOCK
  5
24
330
23
100
AcDbEntity
  8
0
100
AcDbBlockBegin
  2
*Paper_Space0
 70
     0
 10
0.0
 20
0.0
 30
0.0
  3
*Paper_Space0
  1

  0
SPLINE
  5
143
330
23
100
AcDbEntity
  8
0
  6
Continuous
 62
     7
370
    25
100
AcDbSpline
210
0.0
220
0.0
230
1.0
 70
     8
 71
     3
 72
     9
 73
     5
 74
     0
 42
0.000000001
 43
0.00000001
 40
0.0
 40
0.0
 40
0.0
 40
0.0
 40
0.5529479337429417
 40
1.0
 40
1.0
 40
1.0
 40
1.0
 10
125.0000000000001
 20
4.406354961953692
 30
0.0
 10
124.942308213035
 20
4.373102001456828
 30
0.0
 10
124.8379732776018
 20
4.312964403560817
 30
0.0
 10
124.6115227912907
 20
4.235001715387689
 30
0.0
 10
124.5102876334804
 20
4.200148334548939
 30
0.0
  0
SPLINE
  5
144
330
23
100
AcDbEntity
  8
0
  6
Continuous
 62
     7
370
    25
100
AcDbSpline
210
0.0
220
0.0
230
1.0
 70
     8
 71
     3
 72
    10
 73
     6
 74
     0
 42
0.000000001
 43
0.00000001
 40
0.0
 40
0.0
 40
0.0
 40
0.0
 40
0.411167301585609
 40
0.8288981666786541
 40
1.0
 40
1.0
 40
1.0
 40
1.0
 10
124.5809650714757
 20
-4.221629284705575
 30
0.0
 10
124.7094638445542
 20
-4.270744948307199
 30
0.0
 10
124.9685126478382
 20
-4.369760320778676
 30
0.0
 10
125.1270795379506
 20
-4.485516975105105
 30
0.0
 10
125.1144006722277
 20
-4.471699750586914
 30
0.0
 10
125.1107164726656
 20
-4.467684768992239
 30
0.0
  0
SPLINE
  5
145
330
23
100
AcDbEntity
  8
0
  6
Continuous
 62
     7
370
    25
100
AcDbSpline
210
0.0
220
0.0
230
1.0
 70
     8
 71
     3
 72
     9
 73
     5
 74
     0
 42
0.000000001
 43
0.00000001
 40
0.0
 40
0.0
 40
0.0
 40
0.0
 40
0.5529479337428138
 40
1.0
 40
1.0
 40
1.0
 40
1.0
 10
-125.0
 20
-4.406354961953551
 30
0.0
 10
-124.9423082130349
 20
-4.373102001456692
 30
0.0
 10
-124.8379732776017
 20
-4.312964403560673
 30
0.0
 10
-124.6115227912906
 20
-4.235001715387543
 30
0.0
 10
-124.5102876334803
 20
-4.200148334548778
 30
0.0
  0
SPLINE
  5
146
330
23
100
AcDbEntity
  8
0
  6
Continuous
 62
     7
370
    25
100
AcDbSpline
210
0.0
220
0.0
230
1.0
 70
     8
 71
     3
 72
    10
 73
     6
 74
     0
 42
0.000000001
 43
0.00000001
 40
0.0
 40
0.0
 40
0.0
 40
0.0
 40
0.4111673015856082
 40
0.8288981666786286
 40
1.0
 40
1.0
 40
1.0
 40
1.0
 10
-124.5809650714756
 20
4.221629284705724
 30
0.0
 10
-124.7094638445541
 20
4.270744948307346
 30
0.0
 10
-124.9685126478381
 20
4.36976032077882
 30
0.0
 10
-125.1270795379505
 20
4.485516975105247
 30
0.0
 10
-125.1144006722276
 20
4.471699750587055
 30
0.0
 10
-125.1107164726655
 20
4.467684768992382
 30
0.0
  0
CIRCLE
  5
151
330
23
100
AcDbEntity
  8
0
  6
Continuous
 62
     7
370
    25
100
AcDbCircle
 10
-160.0
 20
0.0
 30
0.0
 40
2.400000000000034
  0
CIRCLE
  5
159
330
23
100
AcDbEntity
  8
0
  6
Continuous
 62
     7
370
    25
100
AcDbCircle
 10
160.0
 20
0.0
 30
0.0
 40
2.400000000000006
  0
LWPOLYLINE
  5
15B
330
23
100
AcDbEntity
  8
0
  6
Continuous
 62
     7
370
    25
100
AcDbPolyline
 90
       10
 70
   128
 43
0.0
 10
125.0
 20
4.1098029748
 10
124.8480775301
 20
3.7755302328
 10
124.3969262079
 20
3.4514141989
 10
123.6602540378
 20
3.1473029748
 10
122.6604444312
 20
2.8724368261
 10
121.4278760969
 20
2.6351674218
 10
120.0
 20
2.4427040725
 10
118.4202014333
 20
2.3008946798
 10
116.7364817767
 20
2.2140480502
 10
115.0
 20
2.1848029748
  0
LWPOLYLINE
  5
15D
330
23
100
AcDbEntity
  8
0
  6
Continuous
 62
     7
370
    25
100
AcDbPolyline
 90
       10
 70
   128
 43
0.0
 10
115.0
 20
-2.1848029748
 10
116.7364817767
 20
-2.2140480502
 10
118.4202014333
 20
-2.3008946798
 10
120.0
 20
-2.4427040725
 10
121.4278760969
 20
-2.6351674218
 10
122.6604444312
 20
-2.8724368261
 10
123.6602540378
 20
-3.1473029748
 10
124.3969262079
 20
-3.4514141989
 10
124.8480775301
 20
-3.7755302328
 10
125.0
 20
-4.1098029748
  0
LWPOLYLINE
  5
160
330
23
100
AcDbEntity
  8
0
  6
Continuous
 62
     7
370
    25
100
AcDbPolyline
 90
       10
 70
   128
 43
0.0
 10
-125.0
 20
-4.1098029748
 10
-124.8480775301
 20
-3.7755302328
 10
-124.3969262079
 20
-3.4514141989
 10
-123.6602540378
 20
-3.1473029748
 10
-122.6604444312
 20
-2.8724368261
 10
-121.4278760969
 20
-2.6351674218
 10
-120.0
 20
-2.4427040725
 10
-118.4202014333
 20
-2.3008946798
 10
-116.7364817767
 20
-2.2140480502
 10
-115.0
 20
-2.1848029748
  0
LWPOLYLINE
  5
162
330
23
100
AcDbEntity
  8
0
  6
Continuous
 62
     7
370
    25
100
AcDbPolyline
 90
       10
 70
   128
 43
0.0
 10
-115.0
 20
2.1848029748
 10
-116.7364817767
 20
2.2140480502
 10
-118.4202014333
 20
2.3008946798
 10
-120.0
 20
2.4427040725
 10
-121.4278760969
 20
2.6351674218
 10
-122.6604444312
 20
2.8724368261
 10
-123.6602540378
 20
3.1473029748
 10
-124.3969262079
 20
3.4514141989
 10
-124.8480775301
 20
3.7755302328
 10
-125.0
 20
4.1098029748
  0
LINE
  5
16B
330
23
100
AcDbEntity
  8
0
  6
Continuous
 62
     7
370
    25
100
AcDbLine
 10
-115.0
 20
-3.1848029748
 30
0.0
 11
115.0
 21
-3.1848029748
 31
0.0
  0
LINE
  5
16C
330
23
100
AcDbEntity
  8
0
  6
Continuous
 62
     7
370
    25
100
AcDbLine
 10
115.0
 20
3.1848029748
 30
0.0
 11
-115.0
 21
3.1848029748
 31
0.0
  0
LINE
  5
16D
330
23
100
AcDbEntity
  8
0
  6
Continuous
 62
     7
370
    25
100
AcDbLine
 10
-200.0
 20
-5.0272467092
 30
0.0
 11
-200.0
 21
5.0272467092
 31
0.0
  0
LINE
  5
16E
330
23
100
AcDbEntity
  8
0
  6
Continuous
 62
     7
370
    25
100
AcDbLine
 10
-199.0123186765
 20
6.0
 30
0.0
 11
-126.0
 21
6.0
 31
0.0
  0
LINE
  5
16F
330
23
100
AcDbEntity
  8
0
  6
Continuous
 62
     7
370
    25
100
AcDbLine
 10
-125.0
 20
-4.9848029748
 30
0.0
 11
-125.0
 21
4.9848029748
 31
0.0
  0
LINE
  5
170
330
23
100
AcDbEntity
  8
0
  6
Continuous
 62
     7
370
    25
100
AcDbLine
 10
-126.0
 20
-6.0
 30
0.0
 11
-199.0123186765
 21
-6.0
 31
0.0
  0
LINE
  5
171
330
23
100
AcDbEntity
  8
0
  6
Continuous
 62
     7
370
    25
100
AcDbLine
 10
126.0
 20
6.0
 30
0.0
 11
199.0123186765
 21
6.0
 31
0.0
  0
LINE
  5
172
330
23
100
AcDbEntity
  8
0
  6
Continuous
 62
     7
370
    25
100
AcDbLine
 10
200.0
 20
5.0272467092
 30
0.0
 11
200.0
 21
-5.0272467092
 31
0.0
  0
LINE
  5
173
330
23
100
AcDbEntity
  8
0
  6
Continuous
 62
     7
370
    25
100
AcDbLine
 10
199.0123186765
 20
-6.0
 30
0.0
 11
126.0
 21
-6.0
 31
0.0
  0
LINE
  5
174
330
23
100
AcDbEntity
  8
0
  6
Continuous
 62
     7
370
    25
100
AcDbLine
 10
125.0
 20
-4.9848029748
 30
0.0
 11
125.0
 21
4.9848029748
 31
0.0
  0
LINE
  5
175
330
23
100
AcDbEntity
  8
0
  6
Continuous
 62
     7
370
    25
100
AcDbLine
 10
115.0
 20
-3.1848029748
 30
0.0
 11
115.0
 21
3.1848029748
 31
0.0
  0
LINE
  5
176
330
23
100
AcDbEntity
  8
0
  6
Continuous
 62
     7
370
    25
100
AcDbLine
 10
-115.0
 20
3.1848029748
 30
0.0
 11
-115.0
 21
-3.1848029748
 31
0.0
  0
LINE
  5
177
330
23
100
AcDbEntity
  8
0
  6
Continuous
 62
     7
370
    25
100
AcDbLine
 10
-115.0
 20
-2.1848029748
 30
0.0
 11
115.0
 21
-2.1848029748
 31
0.0
  0
LINE
  5
178
330
23
100
AcDbEntity
  8
0
  6
Continuous
 62
     7
370
    25
100
AcDbLine
 10
115.0
 20
2.1848029748
 30
0.0
 11
-115.0
 21
2.1848029748
 31
0.0
  0
ARC
  5
179
330
23
100
AcDbEntity
  8
0
  6
Continuous
 62
     7
370
    25
100
AcDbCircle
 10
-199.0264943667
 20
-5.0265973651
 30
0.0
 40
0.9735058499108904
100
AcDbArc
 50
180.0382172096
 51
270.8343410789
  0
ARC
  5
17A
330
23
100
AcDbEntity
  8
0
  6
Continuous
 62
     7
370
    25
100
AcDbCircle
 10
-199.0264943667
 20
5.0265973651
 30
0.0
 40
0.9735058499108891
100
AcDbArc
 50
89.1656589211
 51
179.9617827904
  0
ARC
  5
17B
330
23
100
AcDbEntity
  8
0
  6
Continuous
 62
     7
370
    25
100
AcDbCircle
 10
-126.0073416883
 20
4.9926544672
 30
0.0
 40
1.00737228614795
100
AcDbArc
 50
359.5534303084
 51
89.5824269904
  0
ARC
  5
17C
330
23
100
AcDbEntity
  8
0
  6
Continuous
 62
     7
370
    25
100
AcDbCircle
 10
-126.00765625
 20
-4.9923446143
 30
0.0
 40
1.007684471692728
100
AcDbArc
 50
270.4353297534
 51
0.4288129478
  0
ARC
  5
17D
330
23
100
AcDbEntity
  8
0
  6
Continuous
 62
     7
370
    25
100
AcDbCircle
 10
126.00765625
 20
4.9923446143
 30
0.0
 40
1.007684471692739
100
AcDbArc
 50
90.4353297534
 51
180.4288129478
  0
ARC
  5
17E
330
23
100
AcDbEntity
  8
0
  6
Continuous
 62
     7
370
    25
100
AcDbCircle
 10
199.0264943667
 20
5.0265973651
 30
0.0
 40
0.9735058499108917
100
AcDbArc
 50
0.0382172096
 51
90.8343410789
  0
ARC
  5
17F
330
23
100
AcDbEntity
  8
0
  6
Continuous
 62
     7
370
    25
100
AcDbCircle
 10
126.0073416883
 20
-4.9926544672
 30
0.0
 40
1.007372286147936
100
AcDbArc
 50
179.5534303084
 51
269.5824269904
  0
ARC
  5
180
330
23
100
AcDbEntity
  8
0
  6
Continuous
 62
     7
370
    25
100
AcDbCircle
 10
199.0264943667
 20
-5.0265973651
 30
0.0
 40
0.9735058499108868
100
AcDbArc
 50
269.1656589211
 51
359.9617827904
  0
ARC
  5
181
330
23
100
AcDbEntity
  8
0
  6
Continuous
 62
     7
370
    25
100
AcDbCircle
 10
116.364546263
 20
36.5009855419
 30
0.0
 40
33.35907203165453
100
AcDbArc
 50
267.655673372
 51
284.7608612262
  0
ARC
  5
182
330
23
100
AcDbEntity
  8
0
  6
Continuous
 62
     7
370
    25
100
AcDbCircle
 10
116.3877491274
 20
-36.096078357
 30
0.0
 40
32.95547681108456
100
AcDbArc
 50
74.9720184978
 51
92.413428464
  0
ARC
  5
183
330
23
100
AcDbEntity
  8
0
  6
Continuous
 62
     7
370
    25
100
AcDbCircle
 10
-116.364546263
 20
-36.5009855419
 30
0.0
 40
33.35907203165429
100
AcDbArc
 50
87.655673372
 51
104.7608612262
  0
ARC
  5
184
330
23
100
AcDbEntity
  8
0
  6
Continuous
 62
     7
370
    25
100
AcDbCircle
 10
-116.3877491274
 20
36.096078357
 30
0.0
 40
32.95547681108489
100
AcDbArc
 50
254.9720184978
 51
272.413428464
  0
VIEWPORT
  5
362
330
23
100
AcDbEntity
  8
0
100
AcDbViewport
 10
0.0
 20
0.0
 30
0.0
 40
205.6
 41
156.0
 68
     1
 69
     1
 12
0.0
 22
0.0
 13
0.0
 23
0.0
 14
10.0
 24
10.0
 15
10.0
 25
10.0
 16
0.0
 26
0.0
 36
1.0
 17
0.0
 27
0.0
 37
0.0
 42
50.0
 43
0.0
 44
0.0
 45
309.5719844358
 50
0.0
 51
0.0
 72
   100
 90
   557152
  1

281
     0
 71
     1
 74
     0
110
0.0
120
0.0
130
0.0
111
1.0
121
0.0
131
0.0
112
0.0
122
1.0
132
0.0
 79
     0
146
0.0
  0
ENDBLK
  5
25
330
23
100
AcDbEntity
  8
0
100
AcDbBlockEnd
  0
BLOCK
  5
187
330
185
100
AcDbEntity
  8
0
100
AcDbBlockBegin
  2
*Paper_Space1
 70
     0
 10
0.0
 20
0.0
 30
0.0
  3
*Paper_Space1
  1

  0
LINE
  5
19A
330
185
100
AcDbEntity
  8
0
  6
Continuous
 62
     7
370
    25
100
AcDbLine
 10
0.0
 20
6.0
 30
0.0
 11
19.1723803318
 21
2.6448334419
 31
0.0
  0
LINE
  5
19B
330
185
100
AcDbEntity
  8
0
  6
Continuous
 62
     7
370
    25
100
AcDbLine
 10
12.4253562504
 20
2.8528093654
 30
0.0
 11
0.0
 21
5.0272467092
 31
0.0
  0
LINE
  5
19C
330
185
100
AcDbEntity
  8
0
  6
Continuous
 62
     7
370
    25
100
AcDbLine
 10
0.0
 20
6.0
 30
0.0
 11
0.0
 21
-6.0
 31
0.0
  0
LINE
  5
19D
330
185
100
AcDbEntity
  8
0
  6
Continuous
 62
     7
370
    25
100
AcDbLine
 10
12.4253562504
 20
-2.8528093654
 30
0.0
 11
12.4253562504
 21
2.8528093654
 31
0.0
  0
LINE
  5
19E
330
185
100
AcDbEntity
  8
0
  6
Continuous
 62
     7
370
    25
100
AcDbLine
 10
0.0
 20
-5.0272467092
 30
0.0
 11
12.4253562504
 21
-2.8528093654
 31
0.0
  0
LINE
  5
19F
330
185
100
AcDbEntity
  8
0
  6
Continuous
 62
     7
370
    25
100
AcDbLine
 10
19.1723803318
 20
-2.6448334419
 30
0.0
 11
0.0
 21
-6.0
 31
0.0
  0
LINE
  5
1A0
330
185
100
AcDbEntity
  8
0
  6
Continuous
 62
     7
370
    25
100
AcDbLine
 10
20.0
 20
1.6598029748
 30
0.0
 11
12.4253562504
 21
2.8528093654
 31
0.0
  0
LINE
  5
1A1
330
185
100
AcDbEntity
  8
0
  6
Continuous
 62
     7
370
    25
100
AcDbLine
 10
20.0
 20
1.6598029748
 30
0.0
 11
20.0
 21
-1.6598029748
 31
0.0
  0
LINE
  5
1A2
330
185
100
AcDbEntity
  8
0
  6
Continuous
 62
     7
370
    25
100
AcDbLine
 10
12.4253562504
 20
-2.8528093654
 30
0.0
 11
20.0
 21
-1.6598029748
 31
0.0
  0
ARC
  5
1A3
330
185
100
AcDbEntity
  8
0
  6
Continuous
 62
     7
370
    25
100
AcDbCircle
 10
11.3108360279
 20
3.2684451388
 30
0.0
 40
1.189499231825914
100
AcDbArc
 50
339.54810723
 51
28.5995115294
  0
ARC
  5
1A4
330
185
100
AcDbEntity
  8
0
  6
Continuous
 62
     7
370
    25
100
AcDbCircle
 10
11.3108360279
 20
-3.2684451388
 30
0.0
 40
1.189499231825941
100
AcDbArc
 50
331.4004884706
 51
20.45189277
  0
ARC
  5
1A5
330
185
100
AcDbEntity
  8
0
  6
Continuous
 62
     7
370
    25
100
AcDbCircle
 10
19.0
 20
-1.6598029748
 30
0.0
 40
1.000000000000001
100
AcDbArc
 50
279.9262455067
 51
0.0
  0
ARC
  5
1A6
330
185
100
AcDbEntity
  8
0
  6
Continuous
 62
     7
370
    25
100
AcDbCircle
 10
19.0
 20
1.6598029748
 30
0.0
 40
0.9999999999999964
100
AcDbArc
 50
0.0
 51
80.0737544933
  0
VIEWPORT
  5
364
330
185
100
AcDbEntity
  8
0
100
AcDbViewport
 10
0.0
 20
0.0
 30
0.0
 40
205.6
 41
156.0
 68
     1
 69
     1
 12
0.0
 22
0.0
 13
0.0
 23
0.0
 14
10.0
 24
10.0
 15
10.0
 25
10.0
 16
0.0
 26
0.0
 36
1.0
 17
0.0
 27
0.0
 37
0.0
 42
50.0
 43
0.0
 44
0.0
 45
309.5719844358
 50
0.0
 51
0.0
 72
   100
 90
   557152
  1

281
     0
 71
     1
 74
     0
110
0.0
120
0.0
130
0.0
111
1.0
121
0.0
131
0.0
112
0.0
122
1.0
132
0.0
 79
     0
146
0.0
  0
ENDBLK
  5
188
330
185
100
AcDbEntity
  8
0
100
AcDbBlockEnd
  0
BLOCK
  5
1A9
330
1A7
100
AcDbEntity
  8
0
100
AcDbBlockBegin
  2
*Paper_Space2
 70
     0
 10
0.0
 20
0.0
 30
0.0
  3
*Paper_Space2
  1

  0
LINE
  5
1BC
330
1A7
100
AcDbEntity
  8
0
  6
Continuous
 62
     7
370
    25
100
AcDbLine
 10
0.0
 20
-6.0
 30
0.0
 11
-19.1723803318
 21
-2.6448334419
 31
0.0
  0
LINE
  5
1BD
330
1A7
100
AcDbEntity
  8
0
  6
Continuous
 62
     7
370
    25
100
AcDbLine
 10
-12.4253562504
 20
-2.8528093654
 30
0.0
 11
0.0
 21
-5.0272467092
 31
0.0
  0
LINE
  5
1BE
330
1A7
100
AcDbEntity
  8
0
  6
Continuous
 62
     7
370
    25
100
AcDbLine
 10
0.0
 20
-6.0
 30
0.0
 11
0.0
 21
6.0
 31
0.0
  0
LINE
  5
1BF
330
1A7
100
AcDbEntity
  8
0
  6
Continuous
 62
     7
370
    25
100
AcDbLine
 10
0.0
 20
5.0272467092
 30
0.0
 11
-12.4253562504
 21
2.8528093654
 31
0.0
  0
LINE
  5
1C0
330
1A7
100
AcDbEntity
  8
0
  6
Continuous
 62
     7
370
    25
100
AcDbLine
 10
-12.4253562504
 20
2.8528093654
 30
0.0
 11
-12.4253562504
 21
-2.8528093654
 31
0.0
  0
LINE
  5
1C1
330
1A7
100
AcDbEntity
  8
0
  6
Continuous
 62
     7
370
    25
100
AcDbLine
 10
-19.1723803318
 20
2.6448334419
 30
0.0
 11
0.0
 21
6.0
 31
0.0
  0
LINE
  5
1C2
330
1A7
100
AcDbEntity
  8
0
  6
Continuous
 62
     7
370
    25
100
AcDbLine
 10
-12.4253562504
 20
2.8528093654
 30
0.0
 11
-20.0
 21
1.6598029748
 31
0.0
  0
LINE
  5
1C3
330
1A7
100
AcDbEntity
  8
0
  6
Continuous
 62
     7
370
    25
100
AcDbLine
 10
-20.0
 20
-1.6598029748
 30
0.0
 11
-12.4253562504
 21
-2.8528093654
 31
0.0
  0
LINE
  5
1C4
330
1A7
100
AcDbEntity
  8
0
  6
Continuous
 62
     7
370
    25
100
AcDbLine
 10
-20.0
 20
-1.6598029748
 30
0.0
 11
-20.0
 21
1.6598029748
 31
0.0
  0
ARC
  5
1C5
330
1A7
100
AcDbEntity
  8
0
  6
Continuous
 62
     7
370
    25
100
AcDbCircle
 10
-11.3108360279
 20
-3.2684451388
 30
0.0
 40
1.18949923182592
100
AcDbArc
 50
159.54810723
 51
208.5995115294
  0
ARC
  5
1C6
330
1A7
100
AcDbEntity
  8
0
  6
Continuous
 62
     7
370
    25
100
AcDbCircle
 10
-11.3108360279
 20
3.2684451388
 30
0.0
 40
1.189499231825928
100
AcDbArc
 50
151.4004884706
 51
200.45189277
  0
ARC
  5
1C7
330
1A7
100
AcDbEntity
  8
0
  6
Continuous
 62
     7
370
    25
100
AcDbCircle
 10
-19.0
 20
1.6598029748
 30
0.0
 40
0.9999999999999964
100
AcDbArc
 50
99.9262455067
 51
180.0
  0
ARC
  5
1C8
330
1A7
100
AcDbEntity
  8
0
  6
Continuous
 62
     7
370
    25
100
AcDbCircle
 10
-19.0
 20
-1.6598029748
 30
0.0
 40
1.0
100
AcDbArc
 50
180.0
 51
260.0737544933
  0
VIEWPORT
  5
366
330
1A7
100
AcDbEntity
  8
0
100
AcDbViewport
 10
0.0
 20
0.0
 30
0.0
 40
205.6
 41
156.0
 68
     1
 69
     1
 12
0.0
 22
0.0
 13
0.0
 23
0.0
 14
10.0
 24
10.0
 15
10.0
 25
10.0
 16
0.0
 26
0.0
 36
1.0
 17
0.0
 27
0.0
 37
0.0
 42
50.0
 43
0.0
 44
0.0
 45
309.5719844358
 50
0.0
 51
0.0
 72
   100
 90
   557152
  1

281
     0
 71
     1
 74
     0
110
0.0
120
0.0
130
0.0
111
1.0
121
0.0
131
0.0
112
0.0
122
1.0
132
0.0
 79
     0
146
0.0
  0
ENDBLK
  5
1AA
330
1A7
100
AcDbEntity
  8
0
100
AcDbBlockEnd
  0
BLOCK
  5
1CB
330
1C9
100
AcDbEntity
  8
0
100
AcDbBlockBegin
  2
*Paper_Space3
 70
     0
 10
0.0
 20
0.0
 30
0.0
  3
*Paper_Space3
  1

  0
LINE
  5
1EF
330
1C9
100
AcDbEntity
  8
0
  6
Continuous
 62
     7
370
    25
100
AcDbLine
 10
-195.9235184373
 20
12.3552009571
 30
0.0
 11
-199.0123186765
 21
0.0
 31
0.0
  0
LINE
  5
1F0
330
1C9
100
AcDbEntity
  8
0
  6
Continuous
 62
     7
370
    25
100
AcDbLine
 10
187.192235936
 20
19.1723803318
 30
0.0
 11
-187.192235936
 21
19.1723803318
 31
0.0
  0
LINE
  5
1F1
330
1C9
100
AcDbEntity
  8
0
  6
Continuous
 62
     7
370
    25
100
AcDbLine
 10
199.0123186765
 20
0.0
 30
0.0
 11
195.9235184373
 21
12.3552009571
 31
0.0
  0
LINE
  5
1F2
330
1C9
100
AcDbEntity
  8
0
  6
Continuous
 62
     7
370
    25
100
AcDbLine
 10
126.0
 20
5.1723803318
 30
0.0
 11
126.0
 21
0.0
 31
0.0
  0
LINE
  5
1F3
330
1C9
100
AcDbEntity
  8
0
  6
Continuous
 62
     7
370
    25
100
AcDbLine
 10
-115.0
 20
16.1723803318
 30
0.0
 11
115.0
 21
16.1723803318
 31
0.0
  0
LINE
  5
1F4
330
1C9
100
AcDbEntity
  8
0
  6
Continuous
 62
     7
370
    25
100
AcDbLine
 10
-126.0
 20
0.0
 30
0.0
 11
-126.0
 21
5.1723803318
 31
0.0
  0
LINE
  5
1F5
330
1C9
100
AcDbEntity
  8
0
  6
Continuous
 62
     7
370
    25
100
AcDbLine
 10
-200.0
 20
0.0
 30
0.0
 11
-125.0
 21
0.0
 31
0.0
  0
LINE
  5
1F6
330
1C9
100
AcDbEntity
  8
0
  6
Continuous
 62
     7
370
    25
100
AcDbLine
 10
125.0
 20
0.0
 30
0.0
 11
200.0
 21
0.0
 31
0.0
  0
LINE
  5
1F7
330
1C9
100
AcDbEntity
  8
0
  6
Continuous
 62
     7
370
    25
100
AcDbLine
 10
-125.0
 20
5.0
 30
0.0
 11
-125.0
 21
0.0
 31
0.0
  0
LINE
  5
1F8
330
1C9
100
AcDbEntity
  8
0
  6
Continuous
 62
     7
370
    25
100
AcDbLine
 10
-200.0
 20
0.0
 30
0.0
 11
-196.8936609374
 21
12.4253562504
 31
0.0
  0
LINE
  5
1F9
330
1C9
100
AcDbEntity
  8
0
  6
Continuous
 62
     7
370
    25
100
AcDbLine
 10
125.0
 20
0.0
 30
0.0
 11
125.0
 21
5.0
 31
0.0
  0
LINE
  5
1FA
330
1C9
100
AcDbEntity
  8
0
  6
Continuous
 62
     7
370
    25
100
AcDbLine
 10
196.8936609374
 20
12.4253562504
 30
0.0
 11
200.0
 21
0.0
 31
0.0
  0
LINE
  5
1FB
330
1C9
100
AcDbEntity
  8
0
  6
Continuous
 62
     7
370
    25
100
AcDbLine
 10
-115.0
 20
15.0
 30
0.0
 11
-115.0
 21
16.1723803318
 31
0.0
  0
LINE
  5
1FC
330
1C9
100
AcDbEntity
  8
0
  6
Continuous
 62
     7
370
    25
100
AcDbLine
 10
115.0
 20
15.0
 30
0.0
 11
115.0
 21
16.1723803318
 31
0.0
  0
LINE
  5
1FD
330
1C9
100
AcDbEntity
  8
0
  6
Continuous
 62
     7
370
    25
100
AcDbLine
 10
-187.192235936
 20
20.0
 30
0.0
 11
-187.192235936
 21
19.1723803318
 31
0.0
  0
LINE
  5
1FE
330
1C9
100
AcDbEntity
  8
0
  6
Continuous
 62
     7
370
    25
100
AcDbLine
 10
187.192235936
 20
20.0
 30
0.0
 11
187.192235936
 21
19.1723803318
 31
0.0
  0
LINE
  5
1FF
330
1C9
100
AcDbEntity
  8
0
  6
Continuous
 62
     7
370
    25
100
AcDbLine
 10
115.0
 20
15.0
 30
0.0
 11
-115.0
 21
15.0
 31
0.0
  0
LINE
  5
200
330
1C9
100
AcDbEntity
  8
0
  6
Continuous
 62
     7
370
    25
100
AcDbLine
 10
-187.192235936
 20
20.0
 30
0.0
 11
187.192235936
 21
20.0
 31
0.0
  0
ARC
  5
201
330
1C9
100
AcDbEntity
  8
0
  6
Continuous
 62
     7
370
    25
100
AcDbCircle
 10
-187.192235936
 20
10.1723803318
 30
0.0
 40
9.00000000000004
100
AcDbArc
 50
90.0
 51
165.9637565321
  0
ARC
  5
202
330
1C9
100
AcDbEntity
  8
0
  6
Continuous
 62
     7
370
    25
100
AcDbCircle
 10
187.192235936
 20
10.1723803318
 30
0.0
 40
8.99999999999997
100
AcDbArc
 50
14.0362434679
 51
90.0
  0
ARC
  5
203
330
1C9
100
AcDbEntity
  8
0
  6
Continuous
 62
     7
370
    25
100
AcDbCircle
 10
115.0
 20
5.1723803318
 30
0.0
 40
11.0
100
AcDbArc
 50
0.0
 51
90.0
  0
ARC
  5
204
330
1C9
100
AcDbEntity
  8
0
  6
Continuous
 62
     7
370
    25
100
AcDbCircle
 10
-115.0
 20
5.1723803318
 30
0.0
 40
10.99999999999998
100
AcDbArc
 50
90.0
 51
180.0
  0
ARC
  5
205
330
1C9
100
AcDbEntity
  8
0
  6
Continuous
 62
     7
370
    25
100
AcDbCircle
 10
-125.7574287447
 20
3.5928136183
 30
0.0
 40
1.598083795047196
100
AcDbArc
 50
61.7083040419
 51
98.7306056113
  0
ARC
  5
206
330
1C9
100
AcDbEntity
  8
0
  6
Continuous
 62
     7
370
    25
100
AcDbCircle
 10
-196.515055813
 20
10.9180117438
 30
0.0
 40
1.554165146206454
100
AcDbArc
 50
67.6282651239
 51
104.0995120886
  0
ARC
  5
207
330
1C9
100
AcDbEntity
  8
0
  6
Continuous
 62
     7
370
    25
100
AcDbCircle
 10
125.7574287447
 20
3.5928136183
 30
0.0
 40
1.598083795047244
100
AcDbArc
 50
81.2693943887
 51
118.2916959581
  0
ARC
  5
208
330
1C9
100
AcDbEntity
  8
0
  6
Continuous
 62
     7
370
    25
100
AcDbCircle
 10
196.515055813
 20
10.9180117438
 30
0.0
 40
1.554165146206412
100
AcDbArc
 50
75.9004879114
 51
112.3717348761
  0
ARC
  5
209
330
1C9
100
AcDbEntity
  8
0
  6
Continuous
 62
     7
370
    25
100
AcDbCircle
 10
-115.0
 20
5.0
 30
0.0
 40
10.00000000000001
100
AcDbArc
 50
90.0
 51
180.0
  0
ARC
  5
20A
330
1C9
100
AcDbEntity
  8
0
  6
Continuous
 62
     7
370
    25
100
AcDbCircle
 10
115.0
 20
5.0
 30
0.0
 40
10.00000000000001
100
AcDbArc
 50
0.0
 51
90.0
  0
ARC
  5
20B
330
1C9
100
AcDbEntity
  8
0
  6
Continuous
 62
     7
370
    25
100
AcDbCircle
 10
-187.192235936
 20
10.0
 30
0.0
 40
10.00000000000003
100
AcDbArc
 50
90.0
 51
165.9637565321
  0
ARC
  5
20C
330
1C9
100
AcDbEntity
  8
0
  6
Continuous
 62
     7
370
    25
100
AcDbCircle
 10
187.192235936
 20
10.0
 30
0.0
 40
10.00000000000007
100
AcDbArc
 50
14.0362434679
 51
90.0
  0
VIEWPORT
  5
368
330
1C9
100
AcDbEntity
  8
0
100
AcDbViewport
 10
0.0
 20
0.0
 30
0.0
 40
205.6
 41
156.0
 68
     1
 69
     1
 12
0.0
 22
0.0
 13
0.0
 23
0.0
 14
10.0
 24
10.0
 15
10.0
 25
10.0
 16
0.0
 26
0.0
 36
1.0
 17
0.0
 27
0.0
 37
0.0
 42
50.0
 43
0.0
 44
0.0
 45
309.5719844358
 50
0.0
 51
0.0
 72
   100
 90
   557152
  1

281
     0
 71
     1
 74
     0
110
0.0
120
0.0
130
0.0
111
1.0
121
0.0
131
0.0
112
0.0
122
1.0
132
0.0
 79
     0
146
0.0
  0
ENDBLK
  5
1CC
330
1C9
100
AcDbEntity
  8
0
100
AcDbBlockEnd
  0
BLOCK
  5
20F
330
20D
100
AcDbEntity
  8
0
100
AcDbBlockBegin
  2
*Paper_Space4
 70
     0
 10
0.0
 20
0.0
 30
0.0
  3
*Paper_Space4
  1

  0
SPLINE
  5
211
330
20D
100
AcDbEntity
  8
0
  6
Continuous
 62
     7
370
    25
100
AcDbSpline
210
0.0
220
0.0
230
1.0
 70
     8
 71
     3
 72
    16
 73
    12
 74
     0
 42
0.000000001
 43
0.00000001
 40
0.0
 40
0.0
 40
0.0
 40
0.0
 40
0.0651627408914823
 40
0.1891697739038249
 40
0.3126270254971627
 40
0.4358038131278733
 40
0.5590536250407185
 40
0.6825725759432183
 40
0.8066338678845862
 40
0.9314825659648168
 40
1.0
 40
1.0
 40
1.0
 40
1.0
 10
118.4299112069238
 20
-86.38985273747242
 30
0.0
 10
118.6347164391767
 20
-86.50313716222865
 30
0.0
 10
119.2292733738538
 20
-86.83200591030122
 30
0.0
 10
120.3304938406914
 20
-87.30981100840613
 30
0.0
 10
121.7474675119444
 20
-87.78216643100728
 30
0.0
 10
123.2482893325506
 20
-88.14515725530516
 30
0.0
 10
124.7950090453341
 20
-88.39315794612997
 30
0.0
 10
126.3536090414435
 20
-88.52115944250424
 30
0.0
 10
127.8860857984547
 20
-88.52362480054984
 30
0.0
 10
129.1400221037825
 20
-88.42442096793401
 30
0.0
 10
129.8532141109642
 20
-88.30497705167532
 30
0.0
 10
130.1059268573582
 20
-88.26265324572424
 30
0.0
  0
SPLINE
  5
214
330
20D
100
AcDbEntity
  8
0
  6
Continuous
 62
     7
370
    25
100
AcDbSpline
210
0.0
220
0.0
230
1.0
 70
     8
 71
     3
 72
    18
 73
    14
 74
     0
 42
0.000000001
 43
0.00000001
 40
0.0
 40
0.0
 40
0.0
 40
0.0
 40
0.0503583325897414
 40
0.1478671442992533
 40
0.2454377204188032
 40
0.3428856466302784
 40
0.4400773040348631
 40
0.5368995214224572
 40
0.6332612504618017
 40
0.7291072806315844
 40
0.8244318451250461
 40
0.9193015306864933
 40
1.0
 40
1.0
 40
1.0
 40
1.0
 10
84.94519710297942
 20
-49.33016672268797
 30
0.0
 10
84.75397547527048
 20
-49.4731905030088
 30
0.0
 10
84.192491514951
 20
-49.89315115053896
 30
0.0
 10
83.13408079429416
 20
-50.51841534010192
 30
0.0
 10
81.74799383966509
 20
-51.14847414562258
 30
0.0
 10
80.26025250807226
 20
-51.64077725312287
 30
0.0
 10
78.71223135533968
 20
-51.98327085817044
 30
0.0
 10
77.14256354428994
 20
-52.16711123218787
 30
0.0
 10
75.59177174877024
 20
-52.1885740265384
 30
0.0
 10
74.09793454119739
 20
-52.04967763284549
 30
0.0
 10
72.70248349970103
 20
-51.7542434883169
 30
0.0
 10
71.48640608603485
 20
-51.34378071256924
 30
0.0
 10
70.81303858107826
 20
-50.98815988006804
 30
0.0
 10
70.50353070378607
 20
-50.8247016671633
 30
0.0
  0
SPLINE
  5
217
330
20D
100
AcDbEntity
  8
0
  6
Continuous
 62
     7
370
    25
100
AcDbSpline
210
0.0
220
0.0
230
1.0
 70
     8
 71
     3
 72
    13
 73
     9
 74
     0
 42
0.000000001
 43
0.00000001
 40
0.0
 40
0.0
 40
0.0
 40
0.0
 40
0.0979129869894575
 40
0.288659435901274
 40
0.480803065321895
 40
0.6768478559293585
 40
0.8790620182643136
 40
1.0
 40
1.0
 40
1.0
 40
1.0
 10
-92.13102896911957
 20
43.06223119244837
 30
0.0
 10
-92.30537514429777
 20
43.1685887991138
 30
0.0
 10
-92.81936894763153
 20
43.48214400448361
 30
0.0
 10
-93.53244601901382
 20
44.08212949339998
 30
0.0
 10
-94.19102432108181
 20
44.87416285440829
 30
0.0
 10
-94.62793387621159
 20
45.73921941917575
 30
0.0
 10
-94.85163690372913
 20
46.53027595012092
 30
0.0
 10
-94.83007933439015
 20
47.0489707195397
 30
0.0
 10
-94.82201152801842
 20
47.24308949517329
 30
0.0
  0
SPLINE
  5
218
330
20D
100
AcDbEntity
  8
0
  6
Continuous
 62
     7
370
    25
100
AcDbSpline
210
0.0
220
0.0
230
1.0
 70
     8
 71
     3
 72
     9
 73
     5
 74
     0
 42
0.000000001
 43
0.00000001
 40
0.0
 40
0.0
 40
0.0
 40
0.0
 40
0.4904544848691551
 40
1.0
 40
1.0
 40
1.0
 40
1.0
 10
-93.71726630137
 20
44.3570889108535
 30
0.0
 10
-93.52215724105244
 20
44.48932724786066
 30
0.0
 10
-93.12434446466492
 20
44.75895132325773
 30
0.0
 10
-92.56480707550017
 20
44.98527856214275
 30
0.0
 10
-92.27969730830328
 20
45.10060259166856
 30
0.0
  0
SPLINE
  5
21A
330
20D
100
AcDbEntity
  8
0
  6
Continuous
 62
     7
370
    25
100
AcDbSpline
210
0.0
220
0.0
230
1.0
 70
     8
 71
     3
 72
    11
 73
     7
 74
     0
 42
0.000000001
 43
0.00000001
 40
0.0
 40
0.0
 40
0.0
 40
0.0
 40
0.1702675724638786
 40
0.483465905874305
 40
0.7932027981760491
 40
0.9999999999999999
 40
0.9999999999999999
 40
0.9999999999999999
 40
0.9999999999999999
 10
-147.9297234732076
 20
77.9634724660237
 30
0.0
 10
-148.0764795144273
 20
77.77274556331093
 30
0.0
 10
-148.493185651621
 20
77.2311864545488
 30
0.0
 10
-148.9983578865107
 20
76.27978271760723
 30
0.0
 10
-149.3541925690291
 20
75.2405584852521
 30
0.0
 10
-149.3881571750101
 20
74.5823187788668
 30
0.0
 10
-149.4017550876316
 20
74.31878897326843
 30
0.0
  0
SPLINE
  5
21C
330
20D
100
AcDbEntity
  8
0
  6
Continuous
 62
     7
370
    25
100
AcDbSpline
210
0.0
220
0.0
230
1.0
 70
     8
 71
     3
 72
    13
 73
     9
 74
     0
 42
0.000000001
 43
0.00000001
 40
0.0
 40
0.0
 40
0.0
 40
0.0
 40
0.0949715146533981
 40
0.2793577700535225
 40
0.4708355882977852
 40
0.6731349519753885
 40
0.8831366981316212
 40
1.0
 40
1.0
 40
1.0
 40
1.0
 10
-149.4003871874774
 20
70.41762350719804
 30
0.0
 10
-149.3971049531967
 20
70.269899024906
 30
0.0
 10
-149.3874502935569
 20
69.83536892284306
 30
0.0
 10
-149.1128358146348
 20
69.1267933903269
 30
0.0
 10
-148.6152072434047
 20
68.31473660178136
 30
0.0
 10
-147.8811045298431
 20
67.53532069251864
 30
0.0
 10
-147.0837804936067
 20
66.90878778780639
 30
0.0
 10
-146.506338956865
 20
66.5600798797753
 30
0.0
 10
-146.2998876246488
 20
66.43540715087263
 30
0.0
  0
LWPOLYLINE
  5
225
330
20D
100
AcDbEntity
  8
0
  6
Continuous
 62
     7
370
    25
100
AcDbPolyline
 90
       11
 70
   128
 43
0.0
 10
-92.752879637
 20
42.9301335569
 10
-93.873891982
 20
43.7071969053
 10
-94.77577681
 20
44.6143950434
 10
-95.4363267232
 20
45.6293897423
 10
-95.8392767905
 20
46.7271884639
 10
-95.9747050439
 20
47.8807597603
 10
-95.8392767905
 20
49.0616988776
 10
-95.4363267232
 20
50.2409271756
 10
-94.77577681
 20
51.3894081398
 10
-93.873891982
 20
52.4788623574
 10
-92.752879637
 20
53.4824638498
  0
LINE
  5
251
330
20D
100
AcDbEntity
  8
0
  6
Continuous
 62
     7
370
    25
100
AcDbLine
 10
130.1059268574
 20
-88.2626532457
 30
0.0
 11
141.1154030983
 21
-86.2291391886
 31
0.0
  0
LINE
  5
252
330
20D
100
AcDbEntity
  8
0
  6
Continuous
 62
     7
370
    25
100
AcDbLine
 10
-146.2998876246
 20
66.4354071509
 30
0.0
 11
118.4299112069
 21
-86.3898527375
 31
0.0
  0
LINE
  5
253
330
20D
100
AcDbEntity
  8
0
  6
Continuous
 62
     7
370
    25
100
AcDbLine
 10
88.5604269722
 20
-46.51256049
 30
0.0
 11
84.945197103
 21
-49.3301667227
 31
0.0
  0
LINE
  5
254
330
20D
100
AcDbEntity
  8
0
  6
Continuous
 62
     7
370
    25
100
AcDbLine
 10
70.5035307038
 20
-50.8247016672
 30
0.0
 11
-92.1310289691
 21
43.0622311924
 31
0.0
  0
LINE
  5
255
330
20D
100
AcDbEntity
  8
0
  6
Continuous
 62
     7
370
    25
100
AcDbLine
 10
-92.2796973083
 20
45.1006025917
 30
0.0
 11
-88.6495613962
 21
46.4626447281
 31
0.0
  0
LINE
  5
256
330
20D
100
AcDbEntity
  8
0
  6
Continuous
 62
     7
370
    25
100
AcDbLine
 10
-149.4359672277
 20
74.0625620987
 30
0.0
 11
-149.4359672277
 21
70.5986166714
 31
0.0
  0
LINE
  5
257
330
20D
100
AcDbEntity
  8
0
  6
Continuous
 62
     7
370
    25
100
AcDbLine
 10
-141.3141448298
 20
86.1111589737
 30
0.0
 11
-147.9297234732
 21
77.963472466
 31
0.0
  0
LINE
  5
258
330
20D
100
AcDbEntity
  8
0
  6
Continuous
 62
     7
370
    25
100
AcDbLine
 10
129.8024021012
 20
-81.8864651641
 30
0.0
 11
140.7229600758
 21
-76.3383907888
 31
0.0
  0
LINE
  5
259
330
20D
100
AcDbEntity
  8
0
  6
Continuous
 62
     7
370
    25
100
AcDbLine
 10
-145.9218195599
 20
70.7460009773
 30
0.0
 11
118.8079792717
 21
-82.0792589111
 31
0.0
  0
LINE
  5
25A
330
20D
100
AcDbEntity
  8
0
  6
Continuous
 62
     7
370
    25
100
AcDbLine
 10
-140.7229600758
 20
86.1368805314
 30
0.0
 11
-147.2752948606
 21
78.067084585
 31
0.0
  0
LINE
  5
25B
330
20D
100
AcDbEntity
  8
0
  6
Continuous
 62
     7
370
    25
100
AcDbLine
 10
-89.0954544295
 20
56.3329559161
 30
0.0
 11
-140.7229600758
 21
86.1368805314
 31
0.0
  0
LINE
  5
25C
330
20D
100
AcDbEntity
  8
0
  6
Continuous
 62
     7
370
    25
100
AcDbLine
 10
-92.752879637
 20
53.4824638498
 30
0.0
 11
-89.0954544295
 21
56.3329559161
 31
0.0
  0
LINE
  5
25D
330
20D
100
AcDbEntity
  8
0
  6
Continuous
 62
     7
370
    25
100
AcDbLine
 10
69.8816800359
 20
-50.9567993027
 30
0.0
 11
-92.752879637
 21
42.9301335569
 31
0.0
  0
LINE
  5
25E
330
20D
100
AcDbEntity
  8
0
  6
Continuous
 62
     7
370
    25
100
AcDbLine
 10
89.0954544295
 20
-46.5344661735
 30
0.0
 11
85.438029222
 21
-49.3849582399
 31
0.0
  0
LINE
  5
25F
330
20D
100
AcDbEntity
  8
0
  6
Continuous
 62
     7
370
    25
100
AcDbLine
 10
140.7229600758
 20
-76.3383907888
 30
0.0
 11
89.0954544295
 21
-46.5344661735
 31
0.0
  0
LINE
  5
260
330
20D
100
AcDbEntity
  8
0
  6
Continuous
 62
     7
370
    25
100
AcDbLine
 10
130.4387891582
 20
-83.1154365201
 30
0.0
 11
130.4387891582
 21
-87.7743070708
 31
0.0
  0
LINE
  5
261
330
20D
100
AcDbEntity
  8
0
  6
Continuous
 62
     7
370
    25
100
AcDbLine
 10
118.2227637921
 20
-85.932007931
 30
0.0
 11
118.2227637921
 21
-83.2214141938
 31
0.0
  0
LINE
  5
262
330
20D
100
AcDbEntity
  8
0
  6
Continuous
 62
     7
370
    25
100
AcDbLine
 10
141.4213562373
 20
-77.5358590728
 30
0.0
 11
130.4387891582
 21
-83.1154365201
 31
0.0
  0
LINE
  5
263
330
20D
100
AcDbEntity
  8
0
  6
Continuous
 62
     7
370
    25
100
AcDbLine
 10
141.4213562373
 20
-85.7457632917
 30
0.0
 11
141.4213562373
 21
-77.5358590728
 31
0.0
  0
LINE
  5
264
330
20D
100
AcDbEntity
  8
0
  6
Continuous
 62
     7
370
    25
100
AcDbLine
 10
130.4387891582
 20
-87.7743070708
 30
0.0
 11
141.4213562373
 21
-85.7457632917
 31
0.0
  0
LINE
  5
265
330
20D
100
AcDbEntity
  8
0
  6
Continuous
 62
     7
370
    25
100
AcDbLine
 10
118.2227637921
 20
-83.2214141938
 30
0.0
 11
-146.5070350395
 21
69.6038456945
 31
0.0
  0
LINE
  5
266
330
20D
100
AcDbEntity
  8
0
  6
Continuous
 62
     7
370
    25
100
AcDbLine
 10
-146.5070350395
 20
66.8932519573
 30
0.0
 11
118.2227637921
 21
-85.932007931
 31
0.0
  0
LINE
  5
267
330
20D
100
AcDbEntity
  8
0
  6
Continuous
 62
     7
370
    25
100
AcDbLine
 10
-146.5070350395
 20
69.6038456945
 30
0.0
 11
-146.5070350395
 21
66.8932519573
 31
0.0
  0
LINE
  5
268
330
20D
100
AcDbEntity
  8
0
  6
Continuous
 62
     7
370
    25
100
AcDbLine
 10
-94.8516584653
 20
47.2515793237
 30
0.0
 11
-94.8528137424
 21
47.1468085335
 31
0.0
  0
LINE
  5
269
330
20D
100
AcDbEntity
  8
0
  6
Continuous
 62
     7
370
    25
100
AcDbLine
 10
-91.9238815543
 20
52.3403085671
 30
0.0
 11
-91.9238815543
 21
45.6286648516
 31
0.0
  0
LINE
  5
26A
330
20D
100
AcDbEntity
  8
0
  6
Continuous
 62
     7
370
    25
100
AcDbLine
 10
-88.3883476483
 20
55.095802057
 30
0.0
 11
-91.9238815543
 21
52.3403085671
 31
0.0
  0
LINE
  5
26B
330
20D
100
AcDbEntity
  8
0
  6
Continuous
 62
     7
370
    25
100
AcDbLine
 10
-88.3883476483
 20
46.9552119208
 30
0.0
 11
-88.3883476483
 21
55.095802057
 31
0.0
  0
LINE
  5
26C
330
20D
100
AcDbEntity
  8
0
  6
Continuous
 62
     7
370
    25
100
AcDbLine
 10
-91.9238815543
 20
45.6286648516
 30
0.0
 11
-88.3883476483
 21
46.9552119208
 31
0.0
  0
LINE
  5
26D
330
20D
100
AcDbEntity
  8
0
  6
Continuous
 62
     7
370
    25
100
AcDbLine
 10
-149.4359672277
 20
74.0625620987
 30
0.0
 11
-149.4303585564
 21
74.2868447883
 31
0.0
  0
LINE
  5
26E
330
20D
100
AcDbEntity
  8
0
  6
Continuous
 62
     7
370
    25
100
AcDbLine
 10
-149.4359672277
 20
70.5986166714
 30
0.0
 11
-149.4318690964
 21
70.4590205272
 31
0.0
  0
ARC
  5
26F
330
20D
100
AcDbEntity
  8
0
  6
Continuous
 62
     7
370
    25
100
AcDbCircle
 10
124.1138121227
 20
-71.0691426683
 30
0.0
 40
12.22188700333716
100
AcDbArc
 50
244.2703386346
 51
297.7388866188
  0
ARC
  5
270
330
20D
100
AcDbEntity
  8
0
  6
Continuous
 62
     7
370
    25
100
AcDbCircle
 10
-143.8746250483
 20
74.9101260073
 30
0.0
 40
4.640144678077744
100
AcDbArc
 50
137.1283916664
 51
243.8200425587
  0
ARC
  5
271
330
20D
100
AcDbEntity
  8
0
  6
Continuous
 62
     7
370
    25
100
AcDbCircle
 10
76.3901651208
 20
-37.6048924172
 30
0.0
 40
14.85374685327457
100
AcDbArc
 50
244.0127410973
 51
307.5266290797
  0
ARC
  5
272
330
20D
100
AcDbEntity
  8
0
  6
Continuous
 62
     7
370
    25
100
AcDbCircle
 10
124.2248934117
 20
-70.9633056939
 30
0.0
 40
13.64869165763456
100
AcDbArc
 50
243.9115197208
 51
297.0825713885
  0
ARC
  5
273
330
20D
100
AcDbEntity
  8
0
  6
Continuous
 62
     7
370
    25
100
AcDbCircle
 10
119.7846950257
 20
-83.3007102525
 30
0.0
 40
1.563942787823065
100
AcDbArc
 50
128.6470687879
 51
177.0937054589
  0
ARC
  5
274
330
20D
100
AcDbEntity
  8
0
  6
Continuous
 62
     7
370
    25
100
AcDbCircle
 10
127.815023749
 20
-83.6948241546
 30
0.0
 40
2.686975056402758
100
AcDbArc
 50
12.4523858834
 51
42.2997449729
  0
ARC
  5
275
330
20D
100
AcDbEntity
  8
0
  6
Continuous
 62
     7
370
    25
100
AcDbCircle
 10
126.9827027513
 20
-69.2686089555
 30
0.0
 40
18.82565791638193
100
AcDbArc
 50
242.2691217783
 51
280.5785778692
  0
ARC
  5
276
330
20D
100
AcDbEntity
  8
0
  6
Continuous
 62
     7
370
    25
100
AcDbCircle
 10
139.9296887431
 20
-77.603444251
 30
0.0
 40
1.493197799888184
100
AcDbArc
 50
2.5942101366
 51
57.9095957629
  0
ARC
  5
277
330
20D
100
AcDbEntity
  8
0
  6
Continuous
 62
     7
370
    25
100
AcDbCircle
 10
-144.9451038059
 20
69.5245496358
 30
0.0
 40
1.563942787823236
100
AcDbArc
 50
128.6470687879
 51
177.0937054589
  0
ARC
  5
278
330
20D
100
AcDbEntity
  8
0
  6
Continuous
 62
     7
370
    25
100
AcDbCircle
 10
140.9945770378
 20
-85.8141476587
 30
0.0
 40
0.4322232140319374
100
AcDbArc
 50
286.2330814419
 51
9.1033265803
  0
ARC
  5
279
330
20D
100
AcDbEntity
  8
0
  6
Continuous
 62
     7
370
    25
100
AcDbCircle
 10
88.8116039751
 20
-46.9225237907
 30
0.0
 40
0.4807908014240733
100
AcDbArc
 50
53.8158468274
 51
121.495038345
  0
ARC
  5
27A
330
20D
100
AcDbEntity
  8
0
  6
Continuous
 62
     7
370
    25
100
AcDbCircle
 10
-93.7112191229
 20
51.9149538282
 30
0.0
 40
1.837253993885878
100
AcDbArc
 50
13.3863748861
 51
58.5593461064
  0
ARC
  5
27B
330
20D
100
AcDbEntity
  8
0
  6
Continuous
 62
     7
370
    25
100
AcDbCircle
 10
-89.9356183557
 20
55.0320987647
 30
0.0
 40
1.548581528861274
100
AcDbArc
 50
2.357615613
 51
57.1434383812
  0
ARC
  5
27C
330
20D
100
AcDbEntity
  8
0
  6
Continuous
 62
     7
370
    25
100
AcDbCircle
 10
-88.8604192843
 20
46.8900108074
 30
0.0
 40
0.4765530554756104
100
AcDbArc
 50
296.2612425114
 51
7.8637685821
  0
ARC
  5
27D
330
20D
100
AcDbEntity
  8
0
  6
Continuous
 62
     7
370
    25
100
AcDbCircle
 10
-141.0044430553
 20
85.7997291012
 30
0.0
 40
0.439208099471798
100
AcDbArc
 50
50.1419702147
 51
134.8405934236
  0
ARC
  5
27E
330
20D
100
AcDbEntity
  8
0
  6
Continuous
 62
     8
370
    25
100
AcDbCircle
 10
129.9153876051
 20
-87.7751947409
 30
0.0
 40
0.5234023058146529
100
AcDbArc
 50
291.3654536892
 51
0.097171477
  0
ARC
  5
27F
330
20D
100
AcDbEntity
  8
0
  6
Continuous
 62
     8
370
    25
100
AcDbCircle
 10
118.7090596911
 20
-85.9877613191
 30
0.0
 40
0.4894815029776819
100
AcDbArc
 50
173.4596469465
 51
235.2432486239
  0
ARC
  5
280
330
20D
100
AcDbEntity
  8
0
  6
Continuous
 62
     8
370
    25
100
AcDbCircle
 10
-146.0206973308
 20
66.8375073913
 30
0.0
 40
0.489522035814024
100
AcDbArc
 50
173.4612301981
 51
235.2265894085
  0
ARC
  5
281
330
20D
100
AcDbEntity
  8
0
  6
Continuous
 62
     8
370
    25
100
AcDbCircle
 10
85.1494005979
 20
-49.7360903451
 30
0.0
 40
0.4545329889584994
100
AcDbArc
 50
50.5799867854
 51
116.6158111267
  0
ARC
  5
282
330
20D
100
AcDbEntity
  8
0
  6
Continuous
 62
     8
370
    25
100
AcDbCircle
 10
70.2920309591
 20
-51.3580611812
 30
0.0
 40
0.5739329013096051
100
AcDbArc
 50
68.4851908462
 51
135.6416139971
  0
ARC
  5
283
330
20D
100
AcDbEntity
  8
0
  6
Continuous
 62
     8
370
    25
100
AcDbCircle
 10
-92.3427968426
 20
42.5293978425
 30
0.0
 40
0.5733733609654657
100
AcDbArc
 50
68.3252791168
 51
135.6604739629
  0
ARC
  5
284
330
20D
100
AcDbEntity
  8
0
  6
Continuous
 62
     8
370
    25
100
AcDbCircle
 10
-88.0722555423
 20
46.7376872012
 30
0.0
 40
6.798852043184614
100
AcDbArc
 50
124.5072995386
 51
175.6651567234
  0
ARC
  5
285
330
20D
100
AcDbEntity
  8
0
  6
Continuous
 62
     8
370
    25
100
AcDbCircle
 10
-90.2538658121
 20
40.2699387695
 30
0.0
 40
5.612922394160062
100
AcDbArc
 50
107.3093408952
 51
130.843587001
  0
ARC
  5
286
330
20D
100
AcDbEntity
  8
0
  6
Continuous
 62
     8
370
    25
100
AcDbCircle
 10
-92.5333747499
 20
45.6549462016
 30
0.0
 40
0.6100595585049894
100
AcDbArc
 50
295.1790353193
 51
357.5309351872
  0
ARC
  5
287
330
20D
100
AcDbEntity
  8
0
  6
Continuous
 62
     8
370
    25
100
AcDbCircle
 10
-144.2376320746
 20
74.285983639
 30
0.0
 40
5.203134204339071
100
AcDbArc
 50
182.4610259732
 51
244.1408221861
  0
ARC
  5
288
330
20D
100
AcDbEntity
  8
0
  6
Continuous
 62
     8
370
    25
100
AcDbCircle
 10
-147.5275322355
 20
77.5418632754
 30
0.0
 40
0.5826500813558682
100
AcDbArc
 50
64.3473677063
 51
133.6701813371
  0
ARC
  5
289
330
20D
100
AcDbEntity
  8
0
  6
Continuous
 62
     8
370
    25
100
AcDbCircle
 10
-144.5141469335
 20
71.5103622826
 30
0.0
 40
5.028847855982349
100
AcDbArc
 50
192.0673976334
 51
246.6534733045
  0
VIEWPORT
  5
36A
330
20D
100
AcDbEntity
  8
0
100
AcDbViewport
 10
0.0
 20
0.0
 30
0.0
 40
205.6
 41
156.0
 68
     1
 69
     1
 12
0.0
 22
0.0
 13
0.0
 23
0.0
 14
10.0
 24
10.0
 15
10.0
 25
10.0
 16
0.0
 26
0.0
 36
1.0
 17
0.0
 27
0.0
 37
0.0
 42
50.0
 43
0.0
 44
0.0
 45
309.5719844358
 50
0.0
 51
0.0
 72
   100
 90
   557152
  1

281
     0
 71
     1
 74
     0
110
0.0
120
0.0
130
0.0
111
1.0
121
0.0
131
0.0
112
0.0
122
1.0
132
0.0
 79
     0
146
0.0
  0
ENDBLK
  5
210
330
20D
100
AcDbEntity
  8
0
100
AcDbBlockEnd
  0
BLOCK
  5
28C
330
28A
100
AcDbEntity
  8
0
100
AcDbBlockBegin
  2
*Paper_Space5
 70
     0
 10
0.0
 20
0.0
 30
0.0
  3
*Paper_Space5
  1

  0
SPLINE
  5
28E
330
28A
100
AcDbEntity
  8
0
  6
Continuous
 62
     7
370
    25
100
AcDbSpline
210
0.0
220
0.0
230
1.0
 70
     8
 71
     3
 72
    16
 73
    12
 74
     0
 42
0.000000001
 43
0.00000001
 40
0.0
 40
0.0
 40
0.0
 40
0.0
 40
0.06461750355089
 40
0.1877315889558425
 40
0.3106752695402858
 40
0.4337233468405078
 40
0.5571380150110864
 40
0.681262253855881
 40
0.8064477921701688
 40
0.9331204347564582
 40
1.0
 40
1.0
 40
1.0
 40
1.0
 10
156.4267281177302
 20
-56.0370250724807
 30
0.0
 10
156.6707873360488
 20
-56.10029513727273
 30
0.0
 10
157.3798463732519
 20
-56.28411204668633
 30
0.0
 10
158.626704127747
 20
-56.52440938025015
 30
0.0
 10
160.1559284522333
 20
-56.72236513736826
 30
0.0
 10
161.7026369965876
 20
-56.82349514265217
 30
0.0
 10
163.2287204451804
 20
-56.82659834493442
 30
0.0
 10
164.7010212692101
 20
-56.73066896324658
 30
0.0
 10
166.0844373844675
 20
-56.53393696846244
 30
0.0
 10
167.1538700626326
 20
-56.2893699356103
 30
0.0
 10
167.7297227731744
 20
-56.09652711404841
 30
0.0
 10
167.9287015363576
 20
-56.02989266843294
 30
0.0
  0
SPLINE
  5
291
330
28A
100
AcDbEntity
  8
0
  6
Continuous
 62
     7
370
    25
100
AcDbSpline
210
0.0
220
0.0
230
1.0
 70
     8
 71
     3
 72
    18
 73
    14
 74
     0
 42
0.000000001
 43
0.00000001
 40
0.0
 40
0.0
 40
0.0
 40
0.0
 40
0.0499331373467292
 40
0.147588663852188
 40
0.2449082718295081
 40
0.3419355380735623
 40
0.4387762710929149
 40
0.5354118843781238
 40
0.6317834543065116
 40
0.72783341624915
 40
0.8235229947071885
 40
0.9188383236462107
 40
1.0
 40
1.0
 40
1.0
 40
1.0
 10
108.3111617619497
 20
-28.43039584692258
 30
0.0
 10
108.1885106667575
 20
-28.58126578486559
 30
0.0
 10
107.8259876565623
 20
-29.02719595748534
 30
0.0
 10
107.0633158041236
 20
-29.73616600678666
 30
0.0
 10
105.9724330901053
 20
-30.50994297856049
 30
0.0
 10
104.7159132492508
 20
-31.18507566589886
 30
0.0
 10
103.3282991829326
 20
-31.74296058383116
 30
0.0
 10
101.8426050337588
 20
-32.16827492571284
 30
0.0
 10
100.296564403979
 20
-32.44935135964776
 30
0.0
 10
98.72840330056849
 20
-32.57989673979124
 30
0.0
 10
97.18052426613488
 20
-32.55426207888257
 30
0.0
 10
95.7537822929782
 20
-32.39421563635513
 30
0.0
 10
94.89717580704526
 20
-32.18753623263469
 30
0.0
 10
94.50322296169583
 20
-32.09248449008092
 30
0.0
  0
SPLINE
  5
294
330
28A
100
AcDbEntity
  8
0
  6
Continuous
 62
     7
370
    25
100
AcDbSpline
210
0.0
220
0.0
230
1.0
 70
     8
 71
     3
 72
    15
 73
    11
 74
     0
 42
0.000000001
 43
0.00000001
 40
0.0
 40
0.0
 40
0.0
 40
0.0
 40
0.0725972315429452
 40
0.2121756578066439
 40
0.3516924652015537
 40
0.4914341207457467
 40
0.6322918969825462
 40
0.7758407049923075
 40
0.9242190748910405
 40
1.0
 40
1.0
 40
1.0
 40
1.0
 10
-108.912945024111
 20
23.19167128722099
 30
0.0
 10
-109.1430969476272
 20
23.2587665975185
 30
0.0
 10
-109.8157484348762
 20
23.45486211377378
 30
0.0
 10
-110.8307030147753
 20
23.87849269348609
 30
0.0
 10
-111.8771037868378
 20
24.48708804654615
 30
0.0
 10
-112.7307850280492
 20
25.18801076169185
 30
0.0
 10
-113.3837452905101
 20
25.95769296345203
 30
0.0
 10
-113.8154491516898
 20
26.78316127201255
 30
0.0
 10
-114.0330623975836
 20
27.50013622608571
 30
0.0
 10
-114.0169144344186
 20
27.95361985156557
 30
0.0
 10
-114.0114553362927
 20
28.1069278313192
 30
0.0
  0
SPLINE
  5
296
330
28A
100
AcDbEntity
  8
0
  6
Continuous
 62
     7
370
    25
100
AcDbSpline
210
0.0
220
0.0
230
1.0
 70
     8
 71
     3
 72
     9
 73
     5
 74
     0
 42
0.000000001
 43
0.00000001
 40
0.0
 40
0.0
 40
0.0
 40
0.0
 40
0.3938446237520117
 40
1.0
 40
1.0
 40
1.0
 40
1.0
 10
-179.9021510993892
 20
44.335444270157
 30
0.0
 10
-179.9722449583934
 20
44.12832075550056
 30
0.0
 10
-180.1502183386988
 20
43.60241916343809
 30
0.0
 10
-180.1858859034049
 20
43.06104339109919
 30
0.0
 10
-180.2075059895092
 20
42.73288555612555
 30
0.0
  0
SPLINE
  5
298
330
28A
100
AcDbEntity
  8
0
  6
Continuous
 62
     7
370
    25
100
AcDbSpline
210
0.0
220
0.0
230
1.0
 70
     8
 71
     3
 72
    15
 73
    11
 74
     0
 42
0.000000001
 43
0.00000001
 40
0.0
 40
0.0
 40
0.0
 40
0.0
 40
0.0729956425311055
 40
0.1962111995541589
 40
0.3262374869591537
 40
0.4694014251483562
 40
0.6225304202592827
 40
0.7764221317013498
 40
0.9279735634279757
 40
1.0
 40
1.0
 40
1.0
 40
1.0
 10
-180.1908560039254
 20
38.19129608478662
 30
0.0
 10
-180.1874875694091
 20
38.04323218423121
 30
0.0
 10
-180.1784332676159
 20
37.64523862555733
 30
0.0
 10
-179.9018802951693
 20
37.02963337227303
 30
0.0
 10
-179.4226055389626
 20
36.36452341625253
 30
0.0
 10
-178.7158275194322
 20
35.73078974910496
 30
0.0
 10
-177.7858697744017
 20
35.13284801499985
 30
0.0
 10
-176.6518645507866
 20
34.59457116484135
 30
0.0
 10
-175.5890679180278
 20
34.20854491101026
 30
0.0
 10
-174.9058004276623
 20
34.01468587098697
 30
0.0
 10
-174.6856832804194
 20
33.95223346477877
 30
0.0
  0
LWPOLYLINE
  5
29D
330
28A
100
AcDbEntity
  8
0
  6
Continuous
 62
     7
370
    25
100
AcDbPolyline
 90
        8
 70
   128
 43
0.0
 10
-179.0444254847
 20
44.7550972917
 10
-179.291828876
 20
43.6470433749
 10
-179.2177577616
 20
42.5508308708
 10
-178.8248613839
 20
41.505667138
 10
-178.1271921547
 20
40.5489337146
 10
-177.1497030528
 20
39.7148493222
 10
-175.9273551519
 20
39.0332459923
 10
-174.5038671947
 20
38.5285020879
  0
LWPOLYLINE
  5
2A1
330
28A
100
AcDbEntity
  8
0
  6
Continuous
 62
     7
370
    25
100
AcDbPolyline
 90
       11
 70
   128
 43
0.0
 10
-109.2556593218
 20
22.9924905612
 10
-110.7143438134
 20
23.4881107794
 10
-112.010703169
 20
24.135534396
 10
-113.1128167188
 20
24.918819693
 10
-113.9935467694
 20
25.8186795868
 10
-114.6312068241
 20
26.8129565403
 10
-115.010095576
 20
27.877168155
 10
-115.1208835266
 20
28.9851100092
 10
-114.9608427089
 20
30.1095008974
 10
-114.533913859
 20
31.2226545841
 10
-113.850609382
 20
32.2971615314
  0
LWPOLYLINE
  5
2A3
330
28A
100
AcDbEntity
  8
0
  6
Continuous
 62
     7
370
    25
100
AcDbPolyline
 90
       11
 70
   128
 43
0.0
 10
109.0227572807
 20
-28.2750439289
 10
108.0999024006
 20
-29.2844462096
 10
106.9602208674
 20
-30.2038889895
 10
105.6317754227
 20
-31.0107325359
 10
104.1472768024
 20
-31.685109683
 10
102.5432782891
 20
-32.2104150272
 10
100.8592756496
 20
-32.5737138076
 10
99.1367346179
 20
-32.7660604025
 10
97.4180698709
 20
-32.7827186004
 10
95.7456006386
 20
-32.6232782212
 10
94.1605086641
 20
-32.2916652161
  0
LWPOLYLINE
  5
2BF
330
28A
100
AcDbEntity
  8
0
  6
Continuous
 62
     8
370
    25
100
AcDbPolyline
 90
        7
 70
   128
 43
0.0
 10
156.2222979205
 20
-55.5275382403
 10
156.2294011181
 20
-55.6695866686
 10
156.2504944868
 20
-55.7934452083
 10
156.2849359359
 20
-55.8953435558
 10
156.3316770539
 20
-55.9721798843
 10
156.3892950224
 20
-56.0216152651
 10
156.4266650291
 20
-56.0370079125
  0
LWPOLYLINE
  5
2C0
330
28A
100
AcDbEntity
  8
0
  6
Continuous
 62
     8
370
    25
100
AcDbPolyline
 90
        7
 70
   128
 43
0.0
 10
-174.8901134777
 20
34.4617202969
 10
-174.88301028
 20
34.3196718687
 10
-174.8619169114
 20
34.1958133289
 10
-174.8274754622
 20
34.0939149815
 10
-174.7807343442
 20
34.017078653
 10
-174.7231163757
 20
33.9676432722
 10
-174.6856832804
 20
33.9522334648
  0
LWPOLYLINE
  5
2C7
330
28A
100
AcDbEntity
  8
0
  6
Continuous
 62
     8
370
    25
100
AcDbPolyline
 90
        8
 70
   128
 43
0.0
 10
-174.8901134777
 20
37.3071779681
 10
-176.2851911077
 20
37.7846169079
 10
-177.5141526937
 20
38.4107892098
 10
-178.5433213673
 20
39.1685360607
 10
-179.3444951259
 20
40.0370931495
 10
-179.8957196436
 20
40.9926596649
 10
-180.1818898792
 20
42.0090505024
 10
-180.2231595884
 20
42.5822497926
  0
LWPOLYLINE
  5
2C9
330
28A
100
AcDbEntity
  8
0
  6
Continuous
 62
     8
370
    25
100
AcDbPolyline
 90
        8
 70
   128
 43
0.0
 10
-180.2215626102
 20
38.2260237611
 10
-180.1818898792
 20
37.9351573242
 10
-179.8957196436
 20
37.2720574683
 10
-179.3444951259
 20
36.6197738534
 10
-178.5433213673
 20
35.9961808131
 10
-177.5141526937
 20
35.418366482
 10
-176.2851911077
 20
34.9021645338
 10
-174.8901134777
 20
34.4617202969
  0
LINE
  5
2CA
330
28A
100
AcDbEntity
  8
0
  6
Continuous
 62
     7
370
    25
100
AcDbLine
 10
-174.6856832804
 20
33.9522334648
 30
0.0
 11
156.4267281177
 21
-56.0370250725
 31
0.0
  0
LINE
  5
2CB
330
28A
100
AcDbEntity
  8
0
  6
Continuous
 62
     7
370
    25
100
AcDbLine
 10
167.9287015364
 20
-56.0298926684
 30
0.0
 11
176.4952504699
 21
-52.9732702363
 31
0.0
  0
LINE
  5
2CC
330
28A
100
AcDbEntity
  8
0
  6
Continuous
 62
     7
370
    25
100
AcDbLine
 10
94.5032229617
 20
-32.0924844901
 30
0.0
 11
-108.9129450241
 21
23.1916712872
 31
0.0
  0
LINE
  5
2CD
330
28A
100
AcDbEntity
  8
0
  6
Continuous
 62
     7
370
    25
100
AcDbLine
 10
110.687374979
 20
-25.3473813075
 30
0.0
 11
108.3111617619
 21
-28.4303958469
 31
0.0
  0
LINE
  5
2CE
330
28A
100
AcDbEntity
  8
0
  6
Continuous
 62
     7
370
    25
100
AcDbLine
 10
-111.8777816521
 20
24.5293378866
 30
0.0
 11
-110.8304121924
 21
25.2149592378
 31
0.0
  0
LINE
  5
2CF
330
28A
100
AcDbEntity
  8
0
  6
Continuous
 62
     7
370
    25
100
AcDbLine
 10
-180.2231595884
 20
42.5822497926
 30
0.0
 11
-180.2231595884
 21
38.2968286086
 31
0.0
  0
LINE
  5
2D0
330
28A
100
AcDbEntity
  8
0
  6
Continuous
 62
     7
370
    25
100
AcDbLine
 10
-176.8413565298
 20
52.6308647163
 30
0.0
 11
-179.9021510994
 21
44.3354442702
 31
0.0
  0
LINE
  5
2D1
330
28A
100
AcDbEntity
  8
0
  6
Continuous
 62
     7
370
    25
100
AcDbLine
 10
167.5121948527
 20
-49.4315663059
 30
0.0
 11
176.0101010746
 21
-42.6927702276
 31
0.0
  0
LINE
  5
2D2
330
28A
100
AcDbEntity
  8
0
  6
Continuous
 62
     7
370
    25
100
AcDbLine
 10
-174.5038671947
 20
38.5285020879
 30
0.0
 11
156.6085442034
 21
-51.4607564494
 31
0.0
  0
LINE
  5
2D3
330
28A
100
AcDbEntity
  8
0
  6
Continuous
 62
     7
370
    25
100
AcDbLine
 10
-176.0101010746
 20
52.978777836
 30
0.0
 11
-179.0444254847
 21
44.7550972917
 31
0.0
  0
LINE
  5
2D4
330
28A
100
AcDbEntity
  8
0
  6
Continuous
 62
     7
370
    25
100
AcDbLine
 10
-111.4366833314
 20
35.4291065344
 30
0.0
 11
-176.0101010746
 21
52.978777836
 31
0.0
  0
LINE
  5
2D5
330
28A
100
AcDbEntity
  8
0
  6
Continuous
 62
     7
370
    25
100
AcDbLine
 10
-113.850609382
 20
32.2971615314
 30
0.0
 11
-111.4366833314
 21
35.4291065344
 31
0.0
  0
LINE
  5
2D6
330
28A
100
AcDbEntity
  8
0
  6
Continuous
 62
     7
370
    25
100
AcDbLine
 10
94.1605086641
 20
-32.2916652161
 30
0.0
 11
-109.2556593218
 21
22.9924905612
 31
0.0
  0
LINE
  5
2D7
330
28A
100
AcDbEntity
  8
0
  6
Continuous
 62
     7
370
    25
100
AcDbLine
 10
111.4366833314
 20
-25.143098926
 30
0.0
 11
109.0227572807
 21
-28.2750439289
 31
0.0
  0
LINE
  5
2D8
330
28A
100
AcDbEntity
  8
0
  6
Continuous
 62
     7
370
    25
100
AcDbLine
 10
176.0101010746
 20
-42.6927702276
 30
0.0
 11
111.4366833314
 21
-25.143098926
 31
0.0
  0
LINE
  5
2D9
330
28A
100
AcDbEntity
  8
0
  6
Continuous
 62
     7
370
    25
100
AcDbLine
 10
168.3374653086
 20
-50.5410477505
 30
0.0
 11
168.3374653086
 21
-55.4317175567
 31
0.0
  0
LINE
  5
2DA
330
28A
100
AcDbEntity
  8
0
  6
Continuous
 62
     7
370
    25
100
AcDbLine
 10
156.2222979205
 20
-55.5275382403
 30
0.0
 11
156.2222979205
 21
-52.6820805691
 31
0.0
  0
LINE
  5
2DB
330
28A
100
AcDbEntity
  8
0
  6
Continuous
 62
     7
370
    25
100
AcDbLine
 10
176.8836243355
 20
-43.7639874451
 30
0.0
 11
168.3374653086
 21
-50.5410477505
 31
0.0
  0
LINE
  5
2DC
330
28A
100
AcDbEntity
  8
0
  6
Continuous
 62
     7
370
    25
100
AcDbLine
 10
176.8836243355
 20
-52.3823704284
 30
0.0
 11
176.8836243355
 21
-43.7639874451
 31
0.0
  0
LINE
  5
2DD
330
28A
100
AcDbEntity
  8
0
  6
Continuous
 62
     7
370
    25
100
AcDbLine
 10
168.3374653086
 20
-55.4317175567
 30
0.0
 11
176.8836243355
 21
-52.3823704284
 31
0.0
  0
LINE
  5
2DE
330
28A
100
AcDbEntity
  8
0
  6
Continuous
 62
     7
370
    25
100
AcDbLine
 10
156.2222979205
 20
-52.6820805691
 30
0.0
 11
-174.8901134777
 21
37.3071779681
 31
0.0
  0
LINE
  5
2DF
330
28A
100
AcDbEntity
  8
0
  6
Continuous
 62
     7
370
    25
100
AcDbLine
 10
-174.8901134777
 20
34.4617202969
 30
0.0
 11
156.2222979205
 21
-55.5275382403
 31
0.0
  0
LINE
  5
2E0
330
28A
100
AcDbEntity
  8
0
  6
Continuous
 62
     7
370
    25
100
AcDbLine
 10
-174.8901134777
 20
37.3071779681
 30
0.0
 11
-174.8901134777
 21
34.4617202969
 31
0.0
  0
LINE
  5
2E1
330
28A
100
AcDbEntity
  8
0
  6
Continuous
 62
     7
370
    25
100
AcDbLine
 10
-110.5522652097
 20
34.3185469459
 30
0.0
 11
-112.8857421543
 21
31.2909805238
 31
0.0
  0
LINE
  5
2E2
330
28A
100
AcDbEntity
  8
0
  6
Continuous
 62
     7
370
    25
100
AcDbLine
 10
-110.5522652097
 20
25.7729267251
 30
0.0
 11
-110.5522652097
 21
34.3185469459
 31
0.0
  0
LINE
  5
2E3
330
28A
100
AcDbEntity
  8
0
  6
Continuous
 62
     7
370
    25
100
AcDbLine
 10
-180.2231595884
 20
42.5822497926
 30
0.0
 11
-180.2211308151
 21
42.7101682038
 31
0.0
  0
LINE
  5
2E4
330
28A
100
AcDbEntity
  8
0
  6
Continuous
 62
     7
370
    25
100
AcDbLine
 10
-180.2231595884
 20
38.2968286086
 30
0.0
 11
-180.2215626102
 21
38.2260237611
 31
0.0
  0
LINE
  5
2E5
330
28A
100
AcDbEntity
  8
0
  6
Continuous
 62
     8
370
    25
100
AcDbLine
 10
-112.8857421543
 20
31.2909805238
 30
0.0
 11
-112.8857421543
 21
25.421955557
 31
0.0
  0
LINE
  5
2E6
330
28A
100
AcDbEntity
  8
0
  6
Continuous
 62
     8
370
    25
100
AcDbLine
 10
-112.1332202884
 20
24.7380134505
 30
0.0
 11
-110.5522652097
 21
25.7729267251
 31
0.0
  0
ARC
  5
2E7
330
28A
100
AcDbEntity
  8
0
  6
Continuous
 62
     7
370
    25
100
AcDbCircle
 10
159.9444018847
 20
-39.0762204961
 30
0.0
 40
12.82593767516568
100
AcDbArc
 50
254.9247846402
 51
306.1597178676
  0
ARC
  5
2E8
330
28A
100
AcDbEntity
  8
0
  6
Continuous
 62
     7
370
    25
100
AcDbCircle
 10
159.9782596672
 20
-38.5876931973
 30
0.0
 40
14.58626079670133
100
AcDbArc
 50
255.0782291154
 51
304.9658175164
  0
ARC
  5
2E9
330
28A
100
AcDbEntity
  8
0
  6
Continuous
 62
     7
370
    25
100
AcDbCircle
 10
158.4058745076
 20
-52.7009035349
 30
0.0
 40
2.183657714956843
100
AcDbArc
 50
145.3945582162
 51
179.5061085608
  0
ARC
  5
2EA
330
28A
100
AcDbEntity
  8
0
  6
Continuous
 62
     7
370
    25
100
AcDbCircle
 10
166.7435204049
 20
-50.8650057926
 30
0.0
 40
1.626532867468947
100
AcDbArc
 50
11.4884806899
 51
61.7977977417
  0
ARC
  5
2EB
330
28A
100
AcDbEntity
  8
0
  6
Continuous
 62
     7
370
    25
100
AcDbCircle
 10
162.1161794174
 20
-34.7818051982
 30
0.0
 40
21.56671691649901
100
AcDbArc
 50
254.1401038726
 51
286.7661991293
  0
ARC
  5
2EC
330
28A
100
AcDbEntity
  8
0
  6
Continuous
 62
     7
370
    25
100
AcDbCircle
 10
175.7036887376
 20
-43.8343994798
 30
0.0
 40
1.182034631402616
100
AcDbArc
 50
3.4150455693
 51
74.9759482622
  0
ARC
  5
2ED
330
28A
100
AcDbEntity
  8
0
  6
Continuous
 62
     7
370
    25
100
AcDbCircle
 10
-172.7065368905
 20
37.2883550024
 30
0.0
 40
2.183657714956843
100
AcDbArc
 50
145.3945582162
 51
179.5061085608
  0
ARC
  5
2EE
330
28A
100
AcDbEntity
  8
0
  6
Continuous
 62
     7
370
    25
100
AcDbCircle
 10
176.2866752775
 20
-52.4131015401
 30
0.0
 40
0.5977395579203555
100
AcDbArc
 50
290.4224894858
 51
2.9470018846
  0
ARC
  5
2EF
330
28A
100
AcDbEntity
  8
0
  6
Continuous
 62
     7
370
    25
100
AcDbCircle
 10
111.2120462339
 20
-25.795503185
 30
0.0
 40
0.6899950310052092
100
AcDbArc
 50
71.0002908108
 51
139.4993500999
  0
ARC
  5
2F0
330
28A
100
AcDbEntity
  8
0
  6
Continuous
 62
     7
370
    25
100
AcDbCircle
 10
-114.1779714922
 20
31.0175255062
 30
0.0
 40
1.320846057740293
100
AcDbArc
 50
11.9483706451
 51
75.6501065241
  0
ARC
  5
2F1
330
28A
100
AcDbEntity
  8
0
  6
Continuous
 62
     7
370
    25
100
AcDbCircle
 10
-111.7732625878
 20
34.2536218381
 30
0.0
 40
1.22272231806926
100
AcDbArc
 50
3.0437695287
 51
74.0218713681
  0
ARC
  5
2F2
330
28A
100
AcDbEntity
  8
0
  6
Continuous
 62
     7
370
    25
100
AcDbCircle
 10
-111.1946567945
 20
25.7448472227
 30
0.0
 40
0.6430049819083882
100
AcDbArc
 50
304.5046028849
 51
2.5028558131
  0
ARC
  5
2F3
330
28A
100
AcDbEntity
  8
0
  6
Continuous
 62
     7
370
    25
100
AcDbCircle
 10
-176.2421595162
 20
52.3662262311
 30
0.0
 40
0.655034799823172
100
AcDbArc
 50
69.251357923
 51
156.1710996145
  0
ARC
  5
2F4
330
28A
100
AcDbEntity
  8
0
  6
Continuous
 62
     8
370
    25
100
AcDbCircle
 10
167.661933982
 20
-55.4088565313
 30
0.0
 40
0.6759180421501677
100
AcDbArc
 50
293.2603698896
 51
358.0617618601
  0
ARC
  5
2F5
330
28A
100
AcDbEntity
  8
0
  6
Continuous
 62
     8
370
    25
100
AcDbCircle
 10
108.7804071851
 20
-28.8732352003
 30
0.0
 40
0.6454195270631738
100
AcDbArc
 50
67.9452535994
 51
136.4724279692
  0
ARC
  5
2F6
330
28A
100
AcDbEntity
  8
0
  6
Continuous
 62
     8
370
    25
100
AcDbCircle
 10
94.4815709252
 20
-32.4499439745
 30
0.0
 40
0.3579568980509972
100
AcDbArc
 50
86.4130510318
 51
153.757411416
  0
ARC
  5
2F7
330
28A
100
AcDbEntity
  8
0
  6
Continuous
 62
     8
370
    25
100
AcDbCircle
 10
-108.9341475504
 20
22.8337219102
 30
0.0
 40
0.3585767751207378
100
AcDbArc
 50
86.6101421807
 51
153.7189606331
  0
ARC
  5
2F8
330
28A
100
AcDbEntity
  8
0
  6
Continuous
 62
     8
370
    25
100
AcDbCircle
 10
-108.774495062
 20
27.9970655074
 30
0.0
 40
5.268038419485703
100
AcDbArc
 50
141.298429651
 51
178.8799934715
  0
ARC
  5
2F9
330
28A
100
AcDbEntity
  8
0
  6
Continuous
 62
     8
370
    25
100
AcDbCircle
 10
-179.1929329184
 20
43.972177261
 30
0.0
 40
0.7968803124296315
100
AcDbArc
 50
79.2595063923
 51
152.8538050582
  0
VIEWPORT
  5
36C
330
28A
100
AcDbEntity
  8
0
100
AcDbViewport
 10
0.0
 20
0.0
 30
0.0
 40
205.6
 41
156.0
 68
     1
 69
     1
 12
0.0
 22
0.0
 13
0.0
 23
0.0
 14
10.0
 24
10.0
 15
10.0
 25
10.0
 16
0.0
 26
0.0
 36
1.0
 17
0.0
 27
0.0
 37
0.0
 42
50.0
 43
0.0
 44
0.0
 45
309.5719844358
 50
0.0
 51
0.0
 72
   100
 90
   557152
  1

281
     0
 71
     1
 74
     0
110
0.0
120
0.0
130
0.0
111
1.0
121
0.0
131
0.0
112
0.0
122
1.0
132
0.0
 79
     0
146
0.0
  0
ENDBLK
  5
28D
330
28A
100
AcDbEntity
  8
0
100
AcDbBlockEnd
  0
BLOCK
  5
2FC
330
2FA
100
AcDbEntity
  8
0
100
AcDbBlockBegin
  2
*Paper_Space6
 70
     0
 10
0.0
 20
0.0
 30
0.0
  3
*Paper_Space6
  1

  0
SPLINE
  5
2FE
330
2FA
100
AcDbEntity
  8
0
  6
Continuous
 62
     7
370
    25
100
AcDbSpline
210
0.0
220
0.0
230
1.0
 70
     8
 71
     3
 72
    16
 73
    12
 74
     0
 42
0.000000001
 43
0.00000001
 40
0.0
 40
0.0
 40
0.0
 40
0.0
 40
0.0645124310109329
 40
0.187629772820253
 40
0.3108516732321928
 40
0.4342861538060667
 40
0.5581999522291721
 40
0.6828668416808132
 40
0.8086159144771357
 40
0.9359763542951941
 40
1.0
 40
1.0
 40
1.0
 40
1.0
 10
168.2597886701939
 20
-30.54214141374261
 30
0.0
 10
168.5095548190774
 20
-30.5722935891605
 30
0.0
 10
169.235981726866
 20
-30.65998902607152
 30
0.0
 10
170.4926234758161
 20
-30.77571871557675
 30
0.0
 10
172.0073898946476
 20
-30.87215846065623
 30
0.0
 10
173.5111142406654
 20
-30.9228137104064
 30
0.0
 10
174.964790274229
 20
-30.92679940133196
 30
0.0
 10
176.3350459462306
 20
-30.88353262300068
 30
0.0
 10
177.5876803908318
 20
-30.79206268144713
 30
0.0
 10
178.5156598593449
 20
-30.67847922644116
 30
0.0
 10
178.997206678165
 20
-30.58876052867427
 30
0.0
 10
179.158298353234
 20
-30.5587469666624
 30
0.0
  0
SPLINE
  5
301
330
2FA
100
AcDbEntity
  8
0
  6
Continuous
 62
     7
370
    25
100
AcDbSpline
210
0.0
220
0.0
230
1.0
 70
     8
 71
     3
 72
    18
 73
    14
 74
     0
 42
0.000000001
 43
0.00000001
 40
0.0
 40
0.0
 40
0.0
 40
0.0
 40
0.0496061137999791
 40
0.1445901034794226
 40
0.2392552801459976
 40
0.333976578301538
 40
0.4290878049948255
 40
0.5245222955565381
 40
0.6201076419659953
 40
0.7156609243400387
 40
0.8110363105137478
 40
0.9061574181258978
 40
1.0
 40
1.0
 40
1.0
 40
1.0
 10
115.291182508923
 20
-11.93787595985515
 30
0.0
 10
115.2045957570055
 20
-12.04719321353551
 30
0.0
 10
114.9522158291971
 20
-12.36582718445009
 30
0.0
 10
114.3616207605785
 20
-12.90565679904487
 30
0.0
 10
113.4582702793975
 20
-13.52331277189836
 30
0.0
 10
112.3624601919792
 20
-14.09331160901064
 30
0.0
 10
111.1027213525623
 20
-14.59579443255843
 30
0.0
 10
109.7073548569858
 20
-15.01465902370376
 30
0.0
 10
108.2118791460679
 20
-15.33606607083228
 30
0.0
 10
106.6541544001985
 20
-15.55073890860483
 30
0.0
 10
105.0765081002825
 20
-15.64979594333137
 30
0.0
 10
103.5162232415877
 20
-15.64097135411305
 30
0.0
 10
102.530381433146
 20
-15.53992772520738
 30
0.0
 10
102.04079562502
 20
-15.48974774065999
 30
0.0
  0
SPLINE
  5
304
330
2FA
100
AcDbEntity
  8
0
  6
Continuous
 62
     7
370
    25
100
AcDbSpline
210
0.0
220
0.0
230
1.0
 70
     8
 71
     3
 72
    16
 73
    12
 74
     0
 42
0.000000001
 43
0.00000001
 40
0.0
 40
0.0
 40
0.0
 40
0.0
 40
0.0648337528813784
 40
0.1882768540952005
 40
0.3111938977203971
 40
0.4333581572464552
 40
0.5547963006502667
 40
0.6760081679990906
 40
0.7982085155431466
 40
0.9254649100662761
 40
1.0
 40
1.0
 40
1.0
 40
1.0
 10
-113.1045041215324
 20
11.61601219215672
 30
0.0
 10
-113.3552161538027
 20
11.65091657779601
 30
0.0
 10
-114.0832824868751
 20
11.75227871758013
 30
0.0
 10
-115.2078182159463
 20
12.0006248408905
 30
0.0
 10
-116.4003361363584
 20
12.38388902175145
 30
0.0
 10
-117.4115602211092
 20
12.84522752768318
 30
0.0
 10
-118.2174217608774
 20
13.36051018798895
 30
0.0
 10
-118.8057268574953
 20
13.90173334253017
 30
0.0
 10
-119.1681265188042
 20
14.44190513476393
 30
0.0
 10
-119.3367459258261
 20
14.87599914881224
 30
0.0
 10
-119.3207242663818
 20
15.15066140595665
 30
0.0
 10
-119.314806396107
 20
15.2521125454473
 30
0.0
  0
SPLINE
  5
305
330
2FA
100
AcDbEntity
  8
0
  6
Continuous
 62
     7
370
    25
100
AcDbSpline
210
0.0
220
0.0
230
1.0
 70
     8
 71
     3
 72
     9
 73
     5
 74
     0
 42
0.000000001
 43
0.00000001
 40
0.0
 40
0.0
 40
0.0
 40
0.0
 40
0.7728074122605835
 40
1.0
 40
1.0
 40
1.0
 40
1.0
 10
-188.5501155662018
 20
22.21089643938535
 30
0.0
 10
-188.5938318280091
 20
22.02683233970989
 30
0.0
 10
-188.6503999471987
 20
21.78865644134857
 30
0.0
 10
-188.6246011171148
 20
21.5493680929118
 30
0.0
 10
-188.6187398141474
 20
21.49500355381456
 30
0.0
  0
SPLINE
  5
307
330
2FA
100
AcDbEntity
  8
0
  6
Continuous
 62
     7
370
    25
100
AcDbSpline
210
0.0
220
0.0
230
1.0
 70
     8
 71
     3
 72
    17
 73
    13
 74
     0
 42
0.000000001
 43
0.00000001
 40
0.0
 40
0.0
 40
0.0
 40
0.0
 40
0.0507886567085999
 40
0.1252888744072979
 40
0.2051951015571168
 40
0.3073332012603843
 40
0.4507674519332786
 40
0.5820801203570224
 40
0.7198904765048832
 40
0.8535217834187088
 40
0.9776311474443364
 40
0.9999999999999999
 40
0.9999999999999999
 40
0.9999999999999999
 40
0.9999999999999999
 10
-188.6063281643193
 20
16.40806419470953
 30
0.0
 10
-188.6069692460072
 20
16.28415779969416
 30
0.0
 10
-188.6085507094341
 20
15.97849717054208
 30
0.0
 10
-188.3663608521526
 20
15.58163458134641
 30
0.0
 10
-188.032018354879
 20
15.23624978250176
 30
0.0
 10
-187.5367974999958
 20
14.91613529457413
 30
0.0
 10
-186.8429045033685
 20
14.61069123252959
 30
0.0
 10
-185.8900695863292
 20
14.30820568630438
 30
0.0
 10
-184.77886502106
 20
14.03874988064344
 30
0.0
 10
-183.5270746834921
 20
13.8026832265709
 30
0.0
 10
-182.554102520164
 20
13.65737734894781
 30
0.0
 10
-182.0255355618916
 20
13.58980999114048
 30
0.0
 10
-181.9448175095331
 20
13.5794917042331
 30
0.0
  0
LWPOLYLINE
  5
30C
330
2FA
100
AcDbEntity
  8
0
  6
Continuous
 62
     7
370
    25
100
AcDbPolyline
 90
        8
 70
   128
 43
0.0
 10
-187.6378931957
 20
22.8557474207
 10
-187.6748035613
 20
22.0237401441
 10
-187.3906757426
 20
21.2219115564
 10
-186.7956719129
 20
20.4789400212
 10
-185.9110730996
 20
19.8213988091
 10
-184.7685180435
 20
19.2728056726
 10
-183.4088716003
 20
18.852781705
 10
-181.8807631603
 20
18.5763495686
  0
LWPOLYLINE
  5
310
330
2FA
100
AcDbEntity
  8
0
  6
Continuous
 62
     7
370
    25
100
AcDbPolyline
 90
       11
 70
   128
 43
0.0
 10
-113.2904497722
 20
11.4988020694
 10
-114.8522101262
 20
11.7661695318
 10
-116.2797525207
 20
12.1560969177
 10
-117.5379261242
 20
12.6589829207
 10
-118.595750527
 20
13.2624448186
 10
-119.4271785816
 20
13.9516233766
 10
-120.0117377699
 20
14.7095487313
 10
-120.3350343047
 20
15.5175582451
 10
-120.3891075523
 20
16.3557560422
 10
-120.1726260499
 20
17.2035029109
 10
-119.6909202906
 20
18.0399245099
  0
LWPOLYLINE
  5
312
330
2FA
100
AcDbEntity
  8
0
  6
Continuous
 62
     7
370
    25
100
AcDbPolyline
 90
       11
 70
   128
 43
0.0
 10
116.0334950839
 20
-11.658560286
 10
115.2984262621
 20
-12.4630611396
 10
114.3280942118
 20
-13.2158317667
 10
113.1463917283
 20
-13.8983364562
 10
111.7824162488
 20
-14.4937696776
 10
110.2697533763
 20
-14.9874698887
 10
108.6456498909
 20
-15.367280552
 10
106.9500966105
 20
-15.6238494684
 10
105.2248436841
 20
-15.7508590596
 10
103.5123725646
 20
-15.745181928
 10
101.8548499743
 20
-15.6069578634
  0
LWPOLYLINE
  5
32B
330
2FA
100
AcDbEntity
  8
0
  6
Continuous
 62
     8
370
    25
100
AcDbPolyline
 90
        8
 70
   128
 43
0.0
 10
168.0312352796
 20
-29.8617894543
 10
168.0366164333
 20
-30.0209101928
 10
168.0525960898
 20
-30.1656957692
 10
168.078687822
 20
-30.2917388522
 10
168.1140973871
 20
-30.3952026399
 10
168.1577469037
 20
-30.4729376528
 10
168.2083076629
 20
-30.5225776059
 10
168.2597886702
 20
-30.5421414137
  0
LWPOLYLINE
  5
32C
330
2FA
100
AcDbEntity
  8
0
  6
Continuous
 62
     8
370
    25
100
AcDbPolyline
 90
        8
 70
   128
 43
0.0
 10
-182.1733709001
 20
14.2598436637
 10
-182.1679897464
 20
14.1007229252
 10
-182.1520100899
 20
13.9559373488
 10
-182.1259183577
 20
13.8298942657
 10
-182.0905087926
 20
13.7264304781
 10
-182.0468592761
 20
13.6486954652
 10
-181.9962985168
 20
13.5990555121
 10
-181.9448175095
 20
13.5794917042
  0
LWPOLYLINE
  5
332
330
2FA
100
AcDbEntity
  8
0
  6
Continuous
 62
     8
370
    25
100
AcDbPolyline
 90
        9
 70
   128
 43
0.0
 10
-182.1733709001
 20
17.3895981676
 10
-183.6680787906
 20
17.6470836639
 10
-185.0249444635
 20
18.0236472342
 10
-186.2067861329
 20
18.5089700192
 10
-187.1812181435
 20
19.0897528631
 10
-187.9215384253
 20
19.7500807467
 10
-188.407460202
 20
20.4718589017
 10
-188.625667904
 20
21.2353086562
 10
-188.6377502752
 20
21.4872414918
  0
LWPOLYLINE
  5
334
330
2FA
100
AcDbEntity
  8
0
  6
Continuous
 62
     8
370
    25
100
AcDbPolyline
 90
        9
 70
   128
 43
0.0
 10
-188.637836995
 20
16.4179672448
 10
-188.625667904
 20
16.3214372715
 10
-188.407460202
 20
15.9909328097
 10
-187.9215384253
 20
15.6577438268
 10
-187.1812181435
 20
15.3310006011
 10
-186.2067861329
 20
15.0196567799
 10
-185.0249444635
 20
14.7322440253
 10
-183.6680787906
 20
14.4766382234
 10
-182.1733709001
 20
14.2598436637
  0
LINE
  5
335
330
2FA
100
AcDbEntity
  8
0
  6
Continuous
 62
     7
370
    25
100
AcDbLine
 10
-181.9448175095
 20
13.5794917042
 30
0.0
 11
168.2597886702
 21
-30.5421414137
 31
0.0
  0
LINE
  5
336
330
2FA
100
AcDbEntity
  8
0
  6
Continuous
 62
     7
370
    25
100
AcDbLine
 10
179.1582983532
 20
-30.5587469667
 30
0.0
 11
186.4534937399
 21
-29.1013345482
 31
0.0
  0
LINE
  5
337
330
2FA
100
AcDbEntity
  8
0
  6
Continuous
 62
     7
370
    25
100
AcDbLine
 10
102.040795625
 20
-15.4897477407
 30
0.0
 11
-113.1045041215
 21
11.6160121922
 31
0.0
  0
LINE
  5
338
330
2FA
100
AcDbEntity
  8
0
  6
Continuous
 62
     7
370
    25
100
AcDbLine
 10
117.0936945999
 20
-9.5070374078
 30
0.0
 11
115.2911825089
 21
-11.9378759599
 31
0.0
  0
LINE
  5
339
330
2FA
100
AcDbEntity
  8
0
  6
Continuous
 62
     7
370
    25
100
AcDbLine
 10
-188.637836995
 20
21.4675702299
 30
0.0
 11
-188.637836995
 21
16.4179672448
 31
0.0
  0
LINE
  5
33A
330
2FA
100
AcDbEntity
  8
0
  6
Continuous
 62
     7
370
    25
100
AcDbLine
 10
-187.0592374452
 20
28.5164262867
 30
0.0
 11
-188.5501155662
 21
22.2108964394
 31
0.0
  0
LINE
  5
33B
330
2FA
100
AcDbEntity
  8
0
  6
Continuous
 62
     7
370
    25
100
AcDbLine
 10
178.9014468181
 20
-23.3238687181
 30
0.0
 11
186.1589780649
 21
-17.7969724187
 31
0.0
  0
LINE
  5
33C
330
2FA
100
AcDbEntity
  8
0
  6
Continuous
 62
     7
370
    25
100
AcDbLine
 10
-181.8807631603
 20
18.5763495686
 30
0.0
 11
168.3238430194
 21
-25.5452835493
 31
0.0
  0
LINE
  5
33D
330
2FA
100
AcDbEntity
  8
0
  6
Continuous
 62
     7
370
    25
100
AcDbLine
 10
-186.1589780649
 20
29.110680918
 30
0.0
 11
-187.6378931957
 21
22.8557474207
 31
0.0
  0
LINE
  5
33E
330
2FA
100
AcDbEntity
  8
0
  6
Continuous
 62
     7
370
    25
100
AcDbLine
 10
-117.8622076872
 20
20.5060966476
 30
0.0
 11
-186.1589780649
 21
29.110680918
 31
0.0
  0
LINE
  5
33F
330
2FA
100
AcDbEntity
  8
0
  6
Continuous
 62
     7
370
    25
100
AcDbLine
 10
-119.6909202906
 20
18.0399245099
 30
0.0
 11
-117.8622076872
 21
20.5060966476
 31
0.0
  0
LINE
  5
340
330
2FA
100
AcDbEntity
  8
0
  6
Continuous
 62
     7
370
    25
100
AcDbLine
 10
101.8548499743
 20
-15.6069578634
 30
0.0
 11
-113.2904497722
 21
11.4988020694
 31
0.0
  0
LINE
  5
341
330
2FA
100
AcDbEntity
  8
0
  6
Continuous
 62
     7
370
    25
100
AcDbLine
 10
117.8622076872
 20
-9.1923881483
 30
0.0
 11
116.0334950839
 21
-11.658560286
 31
0.0
  0
LINE
  5
342
330
2FA
100
AcDbEntity
  8
0
  6
Continuous
 62
     7
370
    25
100
AcDbLine
 10
186.1589780649
 20
-17.7969724187
 30
0.0
 11
117.8622076872
 21
-9.1923881483
 31
0.0
  0
LINE
  5
343
330
2FA
100
AcDbEntity
  8
0
  6
Continuous
 62
     7
370
    25
100
AcDbLine
 10
179.7841283893
 20
-24.3887714948
 30
0.0
 11
179.7841283893
 21
-29.768080422
 31
0.0
  0
LINE
  5
344
330
2FA
100
AcDbEntity
  8
0
  6
Continuous
 62
     7
370
    25
100
AcDbLine
 10
168.0312352796
 20
-29.8617894543
 30
0.0
 11
168.0312352796
 21
-26.7320349504
 31
0.0
  0
LINE
  5
345
330
2FA
100
AcDbEntity
  8
0
  6
Continuous
 62
     7
370
    25
100
AcDbLine
 10
168.0312352796
 20
-26.7320349504
 30
0.0
 11
-182.1733709001
 21
17.3895981676
 31
0.0
  0
LINE
  5
346
330
2FA
100
AcDbEntity
  8
0
  6
Continuous
 62
     7
370
    25
100
AcDbLine
 10
-182.1733709001
 20
14.2598436637
 30
0.0
 11
168.0312352796
 21
-29.8617894543
 31
0.0
  0
LINE
  5
347
330
2FA
100
AcDbEntity
  8
0
  6
Continuous
 62
     7
370
    25
100
AcDbLine
 10
-182.1733709001
 20
17.3895981676
 30
0.0
 11
-182.1733709001
 21
14.2598436637
 31
0.0
  0
LINE
  5
348
330
2FA
100
AcDbEntity
  8
0
  6
Continuous
 62
     7
370
    25
100
AcDbLine
 10
187.0828693448
 20
-18.8304923767
 30
0.0
 11
179.7841283893
 21
-24.3887714948
 31
0.0
  0
LINE
  5
349
330
2FA
100
AcDbEntity
  8
0
  6
Continuous
 62
     7
370
    25
100
AcDbLine
 10
187.0828693448
 20
-28.3099596803
 30
0.0
 11
187.0828693448
 21
-18.8304923767
 31
0.0
  0
LINE
  5
34A
330
2FA
100
AcDbEntity
  8
0
  6
Continuous
 62
     7
370
    25
100
AcDbLine
 10
179.7841283893
 20
-29.768080422
 30
0.0
 11
187.0828693448
 21
-28.3099596803
 31
0.0
  0
LINE
  5
34B
330
2FA
100
AcDbEntity
  8
0
  6
Continuous
 62
     7
370
    25
100
AcDbLine
 10
-116.9267933405
 20
19.4311085831
 30
0.0
 11
-118.6945602931
 21
17.0471267609
 31
0.0
  0
LINE
  5
34C
330
2FA
100
AcDbEntity
  8
0
  6
Continuous
 62
     7
370
    25
100
AcDbLine
 10
-116.9267933405
 20
12.649659874
 30
0.0
 11
-116.9267933405
 21
19.4311085831
 31
0.0
  0
LINE
  5
34D
330
2FA
100
AcDbEntity
  8
0
  6
Continuous
 62
     8
370
    25
100
AcDbLine
 10
-118.6945602931
 20
17.0471267609
 30
0.0
 11
-118.6945602931
 21
13.8336047246
 31
0.0
  0
ARC
  5
34E
330
2FA
100
AcDbEntity
  8
0
  6
Continuous
 62
     7
370
    25
100
AcDbCircle
 10
170.7035769184
 20
-10.5826074257
 30
0.0
 40
15.15073629274934
100
AcDbArc
 50
260.9631010742
 51
302.757681862
  0
ARC
  5
34F
330
2FA
100
AcDbEntity
  8
0
  6
Continuous
 62
     7
370
    25
100
AcDbCircle
 10
170.6579959296
 20
-9.2612495838
 30
0.0
 40
17.66715067115415
100
AcDbArc
 50
261.4495331291
 51
301.1017434243
  0
ARC
  5
350
330
2FA
100
AcDbEntity
  8
0
  6
Continuous
 62
     7
370
    25
100
AcDbCircle
 10
170.2762441439
 20
-26.656120046
 30
0.0
 40
2.246292027599119
100
AcDbArc
 50
150.3618916355
 51
181.9367170324
  0
ARC
  5
351
330
2FA
100
AcDbEntity
  8
0
  6
Continuous
 62
     7
370
    25
100
AcDbCircle
 10
178.4980240351
 20
-24.5565316659
 30
0.0
 40
1.29699957008724
100
AcDbArc
 50
7.4317334096
 51
71.8778954783
  0
ARC
  5
352
330
2FA
100
AcDbEntity
  8
0
  6
Continuous
 62
     7
370
    25
100
AcDbCircle
 10
173.5993324828
 20
8.8579323887
 30
0.0
 40
39.11803377033612
100
AcDbArc
 50
261.8166716497
 51
279.0969788404
  0
ARC
  5
353
330
2FA
100
AcDbEntity
  8
0
  6
Continuous
 62
     7
370
    25
100
AcDbCircle
 10
-179.9283620359
 20
17.4655130719
 30
0.0
 40
2.246292027598639
100
AcDbArc
 50
150.3618916355
 51
181.9367170324
  0
ARC
  5
354
330
2FA
100
AcDbEntity
  8
0
  6
Continuous
 62
     7
370
    25
100
AcDbCircle
 10
186.0204933318
 20
-18.8504732526
 30
0.0
 40
1.062563893816421
100
AcDbArc
 50
1.0774762322
 51
82.5112953732
  0
ARC
  5
355
330
2FA
100
AcDbEntity
  8
0
  6
Continuous
 62
     7
370
    25
100
AcDbCircle
 10
186.3028217496
 20
-28.3355493098
 30
0.0
 40
0.7804672190307111
100
AcDbArc
 50
281.1310415054
 51
1.8789265637
  0
ARC
  5
356
330
2FA
100
AcDbEntity
  8
0
  6
Continuous
 62
     7
370
    25
100
AcDbCircle
 10
117.7437180144
 20
-9.9988333855
 30
0.0
 40
0.8151035045041211
100
AcDbArc
 50
81.6414310195
 51
142.8895086686
  0
ARC
  5
357
330
2FA
100
AcDbEntity
  8
0
  6
Continuous
 62
     7
370
    25
100
AcDbCircle
 10
-119.8315680162
 20
16.9024057392
 30
0.0
 40
1.146180935350289
100
AcDbArc
 50
7.2537374998
 51
82.9514765739
  0
ARC
  5
358
330
2FA
100
AcDbEntity
  8
0
  6
Continuous
 62
     7
370
    25
100
AcDbCircle
 10
-118.0272128328
 20
19.4180400557
 30
0.0
 40
1.100497090129464
100
AcDbArc
 50
0.6804098557
 51
81.3767289276
  0
ARC
  5
359
330
2FA
100
AcDbEntity
  8
0
  6
Continuous
 62
     7
370
    25
100
AcDbCircle
 10
-186.2882409416
 20
28.3274600266
 30
0.0
 40
0.7938160089671011
100
AcDbArc
 50
80.6283766487
 51
166.2286436218
  0
ARC
  5
35A
330
2FA
100
AcDbEntity
  8
0
  6
Continuous
 62
     8
370
    25
100
AcDbCircle
 10
178.9564790124
 20
-29.7559947162
 30
0.0
 40
0.8277376125893433
100
AcDbArc
 50
284.1184512621
 51
359.1634009004
  0
ARC
  5
35B
330
2FA
100
AcDbEntity
  8
0
  6
Continuous
 62
     8
370
    25
100
AcDbCircle
 10
115.9013189195
 20
-12.433948099
 30
0.0
 40
0.7865728186068006
100
AcDbArc
 50
80.3260853908
 51
140.5263546572
  0
ARC
  5
35C
330
2FA
100
AcDbEntity
  8
0
  6
Continuous
 62
     8
370
    25
100
AcDbCircle
 10
102.0423574215
 20
-15.6986266712
 30
0.0
 40
0.2087156273019153
100
AcDbArc
 50
90.0878813662
 51
153.946874545
  0
ARC
  5
35D
330
2FA
100
AcDbEntity
  8
0
  6
Continuous
 62
     8
370
    25
100
AcDbCircle
 10
-113.1023507254
 20
11.4064960428
 30
0.0
 40
0.2095272152941023
100
AcDbArc
 50
90.588862313
 51
153.8613833408
  0
ARC
  5
35E
330
2FA
100
AcDbEntity
  8
0
  6
Continuous
 62
     8
370
    25
100
AcDbCircle
 10
-116.3143890027
 20
15.1770892705
 30
0.0
 40
3.026921800579047
100
AcDbArc
 50
141.844218574
 51
178.4647312295
  0
ARC
  5
35F
330
2FA
100
AcDbEntity
  8
0
  6
Continuous
 62
     8
370
    25
100
AcDbCircle
 10
-187.681871905
 20
21.9503103256
 30
0.0
 40
0.9065045283486792
100
AcDbArc
 50
87.2192263169
 51
163.2949209692
  0
VIEWPORT
  5
36E
330
2FA
100
AcDbEntity
  8
0
100
AcDbViewport
 10
0.0
 20
0.0
 30
0.0
 40
205.6
 41
156.0
 68
     1
 69
     1
 12
0.0
 22
0.0
 13
0.0
 23
0.0
 14
10.0
 24
10.0
 15
10.0
 25
10.0
 16
0.0
 26
0.0
 36
1.0
 17
0.0
 27
0.0
 37
0.0
 42
50.0
 43
0.0
 44
0.0
 45
309.5719844358
 50
0.0
 51
0.0
 72
   100
 90
   557152
  1

281
     0
 71
     1
 74
     0
110
0.0
120
0.0
130
0.0
111
1.0
121
0.0
131
0.0
112
0.0
122
1.0
132
0.0
 79
     0
146
0.0
  0
ENDBLK
  5
2FD
330
2FA
100
AcDbEntity
  8
0
100
AcDbBlockEnd
  0
ENDSEC
  0
SECTION
  2
ENTITIES
  0
SPLINE
  5
73
330
1F
100
AcDbEntity
  8
0
  6
Continuous
 62
     7
370
    25
100
AcDbSpline
210
0.0
220
0.0
230
1.0
 70
     8
 71
     3
 72
    10
 73
     6
 74
     0
 42
0.000000001
 43
0.00000001
 40
0.0
 40
0.0
 40
0.0
 40
0.0
 40
0.4128849435314637
 40
0.8293972756560146
 40
1.0
 40
1.0
 40
1.0
 40
1.0
 10
124.5784455836869
 20
-4.220586238255567
 30
0.0
 10
124.7078926739741
 20
-4.270052189572838
 30
0.0
 10
124.9679241081734
 20
-4.369418673875628
 30
0.0
 10
125.1270905626763
 20
-4.485517239887035
 30
0.0
 10
125.1144031544819
 20
-4.471699810203461
 30
0.0
 10
125.1107164726655
 20
-4.467684768992239
 30
0.0
  0
SPLINE
  5
75
330
1F
100
AcDbEntity
  8
0
  6
Continuous
 62
     7
370
    25
100
AcDbSpline
210
0.0
220
0.0
230
1.0
 70
     8
 71
     3
 72
    10
 73
     6
 74
     0
 42
0.000000001
 43
0.00000001
 40
0.0
 40
0.0
 40
0.0
 40
0.0
 40
0.3470130748390926
 40
0.7453786522422066
 40
1.0
 40
1.0
 40
1.0
 40
1.0
 10
-125.1259740019635
 20
-4.483763006713147
 30
0.0
 10
-125.1111766486903
 20
-4.471684225442397
 30
0.0
 10
-125.0793921655129
 20
-4.445739192366927
 30
0.0
 10
-124.8611656905008
 20
-4.320786740350133
 30
0.0
 10
-124.6106299288976
 20
-4.234681804459535
 30
0.0
 10
-124.5129376921576
 20
-4.201106622506756
 30
0.0
  0
SPLINE
  5
76
330
1F
100
AcDbEntity
  8
0
  6
Continuous
 62
     7
370
    25
100
AcDbSpline
210
0.0
220
0.0
230
1.0
 70
     8
 71
     3
 72
    10
 73
     6
 74
     0
 42
0.000000001
 43
0.00000001
 40
0.0
 40
0.0
 40
0.0
 40
0.0
 40
0.3470130748390832
 40
0.7453786522421649
 40
1.0
 40
1.0
 40
1.0
 40
1.0
 10
125.1259740019634
 20
4.483763006713287
 30
0.0
 10
125.1111766486902
 20
4.471684225442539
 30
0.0
 10
125.0793921655128
 20
4.44573919236708
 30
0.0
 10
124.8611656905007
 20
4.320786740350291
 30
0.0
 10
124.6106299288975
 20
4.234681804459695
 30
0.0
 10
124.5129376921575
 20
4.201106622506913
 30
0.0
  0
SPLINE
  5
78
330
1F
100
AcDbEntity
  8
0
  6
Continuous
 62
     7
370
    25
100
AcDbSpline
210
0.0
220
0.0
230
1.0
 70
     8
 71
     3
 72
    10
 73
     6
 74
     0
 42
0.000000001
 43
0.00000001
 40
0.0
 40
0.0
 40
0.0
 40
0.0
 40
0.4128849435314335
 40
0.8293972756559261
 40
1.0
 40
1.0
 40
1.0
 40
1.0
 10
-124.578445583687
 20
4.220586238255715
 30
0.0
 10
-124.7078926739742
 20
4.270052189572982
 30
0.0
 10
-124.9679241081735
 20
4.369418673875764
 30
0.0
 10
-125.1270905626763
 20
4.485517239887161
 30
0.0
 10
-125.114403154482
 20
4.471699810203601
 30
0.0
 10
-125.1107164726656
 20
4.467684768992383
 30
0.0
  0
LWPOLYLINE
  5
82
330
1F
100
AcDbEntity
  8
0
  6
Continuous
 62
     7
370
    25
100
AcDbPolyline
 90
        8
 70
   128
 43
0.0
 10
187.192235936
 20
2.6448334419
 10
188.8866851665
 20
2.6729993266
 10
190.5205303823
 20
2.756489594
 10
192.035335144
 20
2.8923181141
 10
193.3769206374
 20
3.0756268167
 10
194.4973034435
 20
3.2998594454
 10
195.3564117238
 20
3.5569960507
 10
195.9235184373
 20
3.8378398325
  0
LWPOLYLINE
  5
87
330
1F
100
AcDbEntity
  8
0
  6
Continuous
 62
     7
370
    25
100
AcDbPolyline
 90
        8
 70
   128
 43
0.0
 10
195.9235184373
 20
-3.8378398325
 10
195.3564117238
 20
-3.5569960507
 10
194.4973034435
 20
-3.2998594454
 10
193.3769206374
 20
-3.0756268167
 10
192.035335144
 20
-2.8923181141
 10
190.5205303823
 20
-2.756489594
 10
188.8866851665
 20
-2.6729993266
 10
187.192235936
 20
-2.6448334419
  0
LWPOLYLINE
  5
8A
330
1F
100
AcDbEntity
  8
0
  6
Continuous
 62
     7
370
    25
100
AcDbPolyline
 90
        8
 70
   128
 43
0.0
 10
-195.9235184373
 20
3.8378398325
 10
-195.3564117238
 20
3.5569960507
 10
-194.4973034435
 20
3.2998594454
 10
-193.3769206374
 20
3.0756268167
 10
-192.035335144
 20
2.8923181141
 10
-190.5205303823
 20
2.756489594
 10
-188.8866851665
 20
2.6729993266
 10
-187.192235936
 20
2.6448334419
  0
LWPOLYLINE
  5
8D
330
1F
100
AcDbEntity
  8
0
  6
Continuous
 62
     7
370
    25
100
AcDbPolyline
 90
        8
 70
   128
 43
0.0
 10
-187.192235936
 20
-2.6448334419
 10
-188.8866851665
 20
-2.6729993266
 10
-190.5205303823
 20
-2.756489594
 10
-192.035335144
 20
-2.8923181141
 10
-193.3769206374
 20
-3.0756268167
 10
-194.4973034435
 20
-3.2998594454
 10
-195.3564117238
 20
-3.5569960507
 10
-195.9235184373
 20
-3.8378398325
  0
LINE
  5
C1
330
1F
100
AcDbEntity
  8
0
  6
Continuous
 62
     7
370
    25
100
AcDbLine
 10
-115.0
 20
-3.1848029748
 30
0.0
 11
115.0
 21
-3.1848029748
 31
0.0
  0
LINE
  5
C2
330
1F
100
AcDbEntity
  8
0
  6
Continuous
 62
     7
370
    25
100
AcDbLine
 10
115.0
 20
3.1848029748
 30
0.0
 11
-115.0
 21
3.1848029748
 31
0.0
  0
LINE
  5
C3
330
1F
100
AcDbEntity
  8
0
  6
Continuous
 62
     7
370
    25
100
AcDbLine
 10
-187.192235936
 20
2.6448334419
 30
0.0
 11
-187.192235936
 21
-2.6448334419
 31
0.0
  0
LINE
  5
C4
330
1F
100
AcDbEntity
  8
0
  6
Continuous
 62
     7
370
    25
100
AcDbLine
 10
-196.8936609374
 20
-2.8528093654
 30
0.0
 11
-196.8936609374
 21
2.8528093654
 31
0.0
  0
LINE
  5
C5
330
1F
100
AcDbEntity
  8
0
  6
Continuous
 62
     7
370
    25
100
AcDbLine
 10
187.192235936
 20
1.6598029748
 30
0.0
 11
-187.192235936
 21
1.6598029748
 31
0.0
  0
LINE
  5
C6
330
1F
100
AcDbEntity
  8
0
  6
Continuous
 62
     7
370
    25
100
AcDbLine
 10
187.192235936
 20
-2.6448334419
 30
0.0
 11
187.192235936
 21
2.6448334419
 31
0.0
  0
LINE
  5
C7
330
1F
100
AcDbEntity
  8
0
  6
Continuous
 62
     7
370
    25
100
AcDbLine
 10
-187.192235936
 20
-1.6598029748
 30
0.0
 11
187.192235936
 21
-1.6598029748
 31
0.0
  0
LINE
  5
C8
330
1F
100
AcDbEntity
  8
0
  6
Continuous
 62
     7
370
    25
100
AcDbLine
 10
196.8936609374
 20
2.8528093654
 30
0.0
 11
196.8936609374
 21
-2.8528093654
 31
0.0
  0
LINE
  5
C9
330
1F
100
AcDbEntity
  8
0
  6
Continuous
 62
     7
370
    25
100
AcDbLine
 10
187.192235936
 20
-2.6448334419
 30
0.0
 11
-187.192235936
 21
-2.6448334419
 31
0.0
  0
LINE
  5
CA
330
1F
100
AcDbEntity
  8
0
  6
Continuous
 62
     7
370
    25
100
AcDbLine
 10
-187.192235936
 20
2.6448334419
 30
0.0
 11
187.192235936
 21
2.6448334419
 31
0.0
  0
LINE
  5
CB
330
1F
100
AcDbEntity
  8
0
  6
Continuous
 62
     7
370
    25
100
AcDbLine
 10
-195.9235184373
 20
-3.8378398325
 30
0.0
 11
-199.0123186765
 21
-6.0
 31
0.0
  0
LINE
  5
CC
330
1F
100
AcDbEntity
  8
0
  6
Continuous
 62
     7
370
    25
100
AcDbLine
 10
199.0123186765
 20
-6.0
 30
0.0
 11
195.9235184373
 21
-3.8378398325
 31
0.0
  0
LINE
  5
CD
330
1F
100
AcDbEntity
  8
0
  6
Continuous
 62
     7
370
    25
100
AcDbLine
 10
126.0
 20
-6.0
 30
0.0
 11
199.0123186765
 21
-6.0
 31
0.0
  0
LINE
  5
CE
330
1F
100
AcDbEntity
  8
0
  6
Continuous
 62
     7
370
    25
100
AcDbLine
 10
126.0
 20
-5.0948334419
 30
0.0
 11
126.0
 21
-6.0
 31
0.0
  0
LINE
  5
CF
330
1F
100
AcDbEntity
  8
0
  6
Continuous
 62
     7
370
    25
100
AcDbLine
 10
-115.0
 20
-3.1698334419
 30
0.0
 11
115.0
 21
-3.1698334419
 31
0.0
  0
LINE
  5
D0
330
1F
100
AcDbEntity
  8
0
  6
Continuous
 62
     7
370
    25
100
AcDbLine
 10
-126.0
 20
-6.0
 30
0.0
 11
-126.0
 21
-5.0948334419
 31
0.0
  0
LINE
  5
D1
330
1F
100
AcDbEntity
  8
0
  6
Continuous
 62
     7
370
    25
100
AcDbLine
 10
-199.0123186765
 20
-6.0
 30
0.0
 11
-126.0
 21
-6.0
 31
0.0
  0
LINE
  5
D2
330
1F
100
AcDbEntity
  8
0
  6
Continuous
 62
     7
370
    25
100
AcDbLine
 10
195.9235184373
 20
3.8378398325
 30
0.0
 11
199.0123186765
 21
6.0
 31
0.0
  0
LINE
  5
D3
330
1F
100
AcDbEntity
  8
0
  6
Continuous
 62
     7
370
    25
100
AcDbLine
 10
-199.0123186765
 20
6.0
 30
0.0
 11
-195.9235184373
 21
3.8378398325
 31
0.0
  0
LINE
  5
D4
330
1F
100
AcDbEntity
  8
0
  6
Continuous
 62
     7
370
    25
100
AcDbLine
 10
-126.0
 20
6.0
 30
0.0
 11
-199.0123186765
 21
6.0
 31
0.0
  0
LINE
  5
D5
330
1F
100
AcDbEntity
  8
0
  6
Continuous
 62
     7
370
    25
100
AcDbLine
 10
-126.0
 20
5.0948334419
 30
0.0
 11
-126.0
 21
6.0
 31
0.0
  0
LINE
  5
D6
330
1F
100
AcDbEntity
  8
0
  6
Continuous
 62
     7
370
    25
100
AcDbLine
 10
115.0
 20
3.1698334419
 30
0.0
 11
-115.0
 21
3.1698334419
 31
0.0
  0
LINE
  5
D7
330
1F
100
AcDbEntity
  8
0
  6
Continuous
 62
     7
370
    25
100
AcDbLine
 10
126.0
 20
6.0
 30
0.0
 11
126.0
 21
5.0948334419
 31
0.0
  0
LINE
  5
D8
330
1F
100
AcDbEntity
  8
0
  6
Continuous
 62
     7
370
    25
100
AcDbLine
 10
199.0123186765
 20
6.0
 30
0.0
 11
126.0
 21
6.0
 31
0.0
  0
LINE
  5
D9
330
1F
100
AcDbEntity
  8
0
  6
Continuous
 62
     7
370
    25
100
AcDbLine
 10
115.0
 20
-3.1848029748
 30
0.0
 11
115.0
 21
-3.1698334419
 31
0.0
  0
LINE
  5
DA
330
1F
100
AcDbEntity
  8
0
  6
Continuous
 62
     7
370
    25
100
AcDbLine
 10
-115.0
 20
-3.1848029748
 30
0.0
 11
-115.0
 21
-3.1698334419
 31
0.0
  0
LINE
  5
DB
330
1F
100
AcDbEntity
  8
0
  6
Continuous
 62
     7
370
    25
100
AcDbLine
 10
115.0
 20
3.1848029748
 30
0.0
 11
115.0
 21
3.1698334419
 31
0.0
  0
LINE
  5
DC
330
1F
100
AcDbEntity
  8
0
  6
Continuous
 62
     7
370
    25
100
AcDbLine
 10
-115.0
 20
3.1848029748
 30
0.0
 11
-115.0
 21
3.1698334419
 31
0.0
  0
LINE
  5
DD
330
1F
100
AcDbEntity
  8
0
  6
Continuous
 62
     7
370
    25
100
AcDbLine
 10
196.8936609374
 20
-2.8528093654
 30
0.0
 11
200.0
 21
-5.0272467092
 31
0.0
  0
LINE
  5
DE
330
1F
100
AcDbEntity
  8
0
  6
Continuous
 62
     7
370
    25
100
AcDbLine
 10
200.0
 20
5.0272467092
 30
0.0
 11
196.8936609374
 21
2.8528093654
 31
0.0
  0
LINE
  5
DF
330
1F
100
AcDbEntity
  8
0
  6
Continuous
 62
     7
370
    25
100
AcDbLine
 10
-196.8936609374
 20
2.8528093654
 30
0.0
 11
-200.0
 21
5.0272467092
 31
0.0
  0
LINE
  5
E0
330
1F
100
AcDbEntity
  8
0
  6
Continuous
 62
     7
370
    25
100
AcDbLine
 10
-200.0
 20
-5.0272467092
 30
0.0
 11
-196.8936609374
 21
-2.8528093654
 31
0.0
  0
LINE
  5
E1
330
1F
100
AcDbEntity
  8
0
  6
Continuous
 62
     7
370
    25
100
AcDbLine
 10
200.0
 20
-5.0272467092
 30
0.0
 11
200.0
 21
5.0272467092
 31
0.0
  0
LINE
  5
E2
330
1F
100
AcDbEntity
  8
0
  6
Continuous
 62
     7
370
    25
100
AcDbLine
 10
-200.0
 20
5.0272467092
 30
0.0
 11
-200.0
 21
-5.0272467092
 31
0.0
  0
LINE
  5
E3
330
1F
100
AcDbEntity
  8
0
  6
Continuous
 62
     7
370
    25
100
AcDbLine
 10
125.0
 20
-4.9848029748
 30
0.0
 11
125.0
 21
-4.4554410435
 31
0.0
  0
LINE
  5
E4
330
1F
100
AcDbEntity
  8
0
  6
Continuous
 62
     7
370
    25
100
AcDbLine
 10
125.0
 20
4.406354962
 30
0.0
 11
125.0
 21
4.9848029748
 31
0.0
  0
LINE
  5
E5
330
1F
100
AcDbEntity
  8
0
  6
Continuous
 62
     7
370
    25
100
AcDbLine
 10
-125.0
 20
-4.406354962
 30
0.0
 11
-125.0
 21
-4.9848029748
 31
0.0
  0
LINE
  5
E6
330
1F
100
AcDbEntity
  8
0
  6
Continuous
 62
     7
370
    25
100
AcDbLine
 10
-125.0
 20
4.9848029748
 30
0.0
 11
-125.0
 21
4.4554410435
 31
0.0
  0
ARC
  5
E7
330
1F
100
AcDbEntity
  8
0
  6
Continuous
 62
     7
370
    25
100
AcDbCircle
 10
-188.8560529314
 20
28.171865363
 30
0.0
 40
26.56421915044015
100
AcDbArc
 50
252.3878077147
 51
273.5910007748
  0
ARC
  5
E8
330
1F
100
AcDbEntity
  8
0
  6
Continuous
 62
     7
370
    25
100
AcDbCircle
 10
-188.8560529314
 20
-28.171865363
 30
0.0
 40
26.56421915043994
100
AcDbArc
 50
86.4089992252
 51
107.6121922853
  0
ARC
  5
E9
330
1F
100
AcDbEntity
  8
0
  6
Continuous
 62
     7
370
    25
100
AcDbCircle
 10
188.8560529314
 20
28.171865363
 30
0.0
 40
26.56421915044013
100
AcDbArc
 50
266.4089992252
 51
287.6121922853
  0
ARC
  5
EA
330
1F
100
AcDbEntity
  8
0
  6
Continuous
 62
     7
370
    25
100
AcDbCircle
 10
195.8661794313
 20
2.8111124507
 30
0.0
 40
1.028327223304321
100
AcDbArc
 50
2.3238832219
 51
86.8035584897
  0
ARC
  5
EB
330
1F
100
AcDbEntity
  8
0
  6
Continuous
 62
     7
370
    25
100
AcDbCircle
 10
188.8560529314
 20
-28.171865363
 30
0.0
 40
26.56421915043992
100
AcDbArc
 50
72.3878077147
 51
93.5910007748
  0
ARC
  5
EC
330
1F
100
AcDbEntity
  8
0
  6
Continuous
 62
     7
370
    25
100
AcDbCircle
 10
195.8661794313
 20
-2.8111124507
 30
0.0
 40
1.028327223304322
100
AcDbArc
 50
273.1964415103
 51
357.6761167781
  0
ARC
  5
ED
330
1F
100
AcDbEntity
  8
0
  6
Continuous
 62
     7
370
    25
100
AcDbCircle
 10
-195.8661794313
 20
2.8111124507
 30
0.0
 40
1.028327223304321
100
AcDbArc
 50
93.1964415103
 51
177.6761167781
  0
ARC
  5
EE
330
1F
100
AcDbEntity
  8
0
  6
Continuous
 62
     7
370
    25
100
AcDbCircle
 10
-195.8661794313
 20
-2.8111124507
 30
0.0
 40
1.028327223304319
100
AcDbArc
 50
182.3238832219
 51
266.8035584897
  0
ARC
  5
EF
330
1F
100
AcDbEntity
  8
0
  6
Continuous
 62
     7
370
    25
100
AcDbCircle
 10
116.3863576359
 20
-36.1203702713
 30
0.0
 40
32.97968867103027
100
AcDbArc
 50
74.9881277138
 51
92.4092360249
  0
ARC
  5
F0
330
1F
100
AcDbEntity
  8
0
  6
Continuous
 62
     7
370
    25
100
AcDbCircle
 10
-116.3658034267
 20
-36.4790556164
 30
0.0
 40
33.33721195402069
100
AcDbArc
 50
87.6519728089
 51
104.7752535823
  0
ARC
  5
F1
330
1F
100
AcDbEntity
  8
0
  6
Continuous
 62
     7
370
    25
100
AcDbCircle
 10
-116.3863576359
 20
36.1203702713
 30
0.0
 40
32.97968867103058
100
AcDbArc
 50
254.9881277138
 51
272.4092360249
  0
ARC
  5
F2
330
1F
100
AcDbEntity
  8
0
  6
Continuous
 62
     7
370
    25
100
AcDbCircle
 10
116.3658034267
 20
36.4790556164
 30
0.0
 40
33.33721195402072
100
AcDbArc
 50
267.6519728089
 51
284.7752535823
  0
ARC
  5
F3
330
1F
100
AcDbEntity
  8
0
  6
Continuous
 62
     7
370
    25
100
AcDbCircle
 10
199.0264943667
 20
-5.0265973651
 30
0.0
 40
0.9735058499108904
100
AcDbArc
 50
269.1656589211
 51
359.9617827904
  0
ARC
  5
F4
330
1F
100
AcDbEntity
  8
0
  6
Continuous
 62
     7
370
    25
100
AcDbCircle
 10
199.0264943667
 20
5.0265973651
 30
0.0
 40
0.9735058499108891
100
AcDbArc
 50
0.0382172096
 51
90.8343410789
  0
ARC
  5
F5
330
1F
100
AcDbEntity
  8
0
  6
Continuous
 62
     7
370
    25
100
AcDbCircle
 10
-199.0264943667
 20
5.0265973651
 30
0.0
 40
0.9735058499108917
100
AcDbArc
 50
89.1656589211
 51
179.9617827904
  0
ARC
  5
F6
330
1F
100
AcDbEntity
  8
0
  6
Continuous
 62
     7
370
    25
100
AcDbCircle
 10
-199.0264943667
 20
-5.0265973651
 30
0.0
 40
0.9735058499108868
100
AcDbArc
 50
180.0382172096
 51
270.8343410789
  0
ARC
  5
F7
330
1F
100
AcDbEntity
  8
0
  6
Continuous
 62
     7
370
    25
100
AcDbCircle
 10
126.00765625
 20
-4.9923446143
 30
0.0
 40
1.007684471692728
100
AcDbArc
 50
179.5711870522
 51
269.5646702466
  0
ARC
  5
F8
330
1F
100
AcDbEntity
  8
0
  6
Continuous
 62
     7
370
    25
100
AcDbCircle
 10
126.0073416883
 20
4.9926544672
 30
0.0
 40
1.00737228614795
100
AcDbArc
 50
90.4175730096
 51
180.4465696916
  0
ARC
  5
F9
330
1F
100
AcDbEntity
  8
0
  6
Continuous
 62
     7
370
    25
100
AcDbCircle
 10
-126.0073416883
 20
-4.9926544672
 30
0.0
 40
1.007372286147936
100
AcDbArc
 50
270.4175730096
 51
0.4465696916
  0
ARC
  5
FA
330
1F
100
AcDbEntity
  8
0
  6
Continuous
 62
     7
370
    25
100
AcDbCircle
 10
-126.00765625
 20
4.9923446143
 30
0.0
 40
1.007684471692739
100
AcDbArc
 50
359.5711870522
 51
89.5646702466
  0
ARC
  5
FB
330
1F
100
AcDbEntity
  8
0
  6
Continuous
 62
     8
370
    25
100
AcDbCircle
 10
124.7214995262
 20
-5.6409156053
 30
0.0
 40
1.390240695201392
100
AcDbArc
 50
23.1286397844
 51
81.4274996429
  0
ARC
  5
FC
330
1F
100
AcDbEntity
  8
0
  6
Continuous
 62
     8
370
    25
100
AcDbCircle
 10
-124.6852895464
 20
-5.6659119014
 30
0.0
 40
1.433385566998739
100
AcDbArc
 50
97.3124535045
 51
156.5210380362
  0
ARC
  5
FD
330
1F
100
AcDbEntity
  8
0
  6
Continuous
 62
     8
370
    25
100
AcDbCircle
 10
-124.7214995262
 20
5.6409156053
 30
0.0
 40
1.390240695201499
100
AcDbArc
 50
203.1286397844
 51
261.4274996429
  0
ARC
  5
FE
330
1F
100
AcDbEntity
  8
0
  6
Continuous
 62
     8
370
    25
100
AcDbCircle
 10
124.6852895464
 20
5.6659119014
 30
0.0
 40
1.433385566998817
100
AcDbArc
 50
277.3124535045
 51
336.5210380362
  0
ARC
  5
FF
330
1F
100
AcDbEntity
  8
0
  6
Continuous
 62
     8
370
    25
100
AcDbCircle
 10
125.9961116636
 20
-4.0948977125
 30
0.0
 40
0.9999432894634077
100
AcDbArc
 50
202.754816954
 51
270.2227984595
  0
ARC
  5
100
330
1F
100
AcDbEntity
  8
0
  6
Continuous
 62
     8
370
    25
100
AcDbCircle
 10
-125.9962250912
 20
-4.0945218616
 30
0.0
 40
1.00031870311281
100
AcDbArc
 50
269.783782054
 51
335.706994071
  0
ARC
  5
101
330
1F
100
AcDbEntity
  8
0
  6
Continuous
 62
     8
370
    25
100
AcDbCircle
 10
125.9962250912
 20
4.0945218616
 30
0.0
 40
1.000318703112827
100
AcDbArc
 50
89.783782054
 51
155.706994071
  0
ARC
  5
102
330
1F
100
AcDbEntity
  8
0
  6
Continuous
 62
     8
370
    25
100
AcDbCircle
 10
-125.9961116636
 20
4.0948977125
 30
0.0
 40
0.9999432894634698
100
AcDbArc
 50
22.754816954
 51
90.2227984595
  0
LINE
  5
125
330
1B
100
AcDbEntity
 67
     1
  8
0
  6
Continuous
 62
     7
370
    25
100
AcDbLine
 10
200.0
 20
0.0
 30
0.0
 11
196.8936609374
 21
-12.4253562504
 31
0.0
  0
LINE
  5
126
330
1B
100
AcDbEntity
 67
     1
  8
0
  6
Continuous
 62
     7
370
    25
100
AcDbLine
 10
195.9235184373
 20
-12.3552009571
 30
0.0
 11
199.0123186765
 21
0.0
 31
0.0
  0
LINE
  5
127
330
1B
100
AcDbEntity
 67
     1
  8
0
  6
Continuous
 62
     7
370
    25
100
AcDbLine
 10
200.0
 20
0.0
 30
0.0
 11
125.0
 21
0.0
 31
0.0
  0
LINE
  5
128
330
1B
100
AcDbEntity
 67
     1
  8
0
  6
Continuous
 62
     7
370
    25
100
AcDbLine
 10
-199.0123186765
 20
0.0
 30
0.0
 11
-195.9235184373
 21
-12.3552009571
 31
0.0
  0
LINE
  5
129
330
1B
100
AcDbEntity
 67
     1
  8
0
  6
Continuous
 62
     7
370
    25
100
AcDbLine
 10
-196.8936609374
 20
-12.4253562504
 30
0.0
 11
-200.0
 21
0.0
 31
0.0
  0
LINE
  5
12A
330
1B
100
AcDbEntity
 67
     1
  8
0
  6
Continuous
 62
     7
370
    25
100
AcDbLine
 10
-125.0
 20
0.0
 30
0.0
 11
-200.0
 21
0.0
 31
0.0
  0
LINE
  5
12B
330
1B
100
AcDbEntity
 67
     1
  8
0
  6
Continuous
 62
     7
370
    25
100
AcDbLine
 10
-187.192235936
 20
-19.1723803318
 30
0.0
 11
187.192235936
 21
-19.1723803318
 31
0.0
  0
LINE
  5
12C
330
1B
100
AcDbEntity
 67
     1
  8
0
  6
Continuous
 62
     7
370
    25
100
AcDbLine
 10
-126.0
 20
-5.1723803318
 30
0.0
 11
-126.0
 21
0.0
 31
0.0
  0
LINE
  5
12D
330
1B
100
AcDbEntity
 67
     1
  8
0
  6
Continuous
 62
     7
370
    25
100
AcDbLine
 10
115.0
 20
-16.1723803318
 30
0.0
 11
-115.0
 21
-16.1723803318
 31
0.0
  0
LINE
  5
12E
330
1B
100
AcDbEntity
 67
     1
  8
0
  6
Continuous
 62
     7
370
    25
100
AcDbLine
 10
126.0
 20
0.0
 30
0.0
 11
126.0
 21
-5.1723803318
 31
0.0
  0
LINE
  5
12F
330
1B
100
AcDbEntity
 67
     1
  8
0
  6
Continuous
 62
     7
370
    25
100
AcDbLine
 10
-125.0
 20
0.0
 30
0.0
 11
-125.0
 21
-5.0
 31
0.0
  0
LINE
  5
130
330
1B
100
AcDbEntity
 67
     1
  8
0
  6
Continuous
 62
     7
370
    25
100
AcDbLine
 10
125.0
 20
-5.0
 30
0.0
 11
125.0
 21
0.0
 31
0.0
  0
LINE
  5
131
330
1B
100
AcDbEntity
 67
     1
  8
0
  6
Continuous
 62
     7
370
    25
100
AcDbLine
 10
-115.0
 20
-15.0
 30
0.0
 11
-115.0
 21
-16.1723803318
 31
0.0
  0
LINE
  5
132
330
1B
100
AcDbEntity
 67
     1
  8
0
  6
Continuous
 62
     7
370
    25
100
AcDbLine
 10
115.0
 20
-15.0
 30
0.0
 11
115.0
 21
-16.1723803318
 31
0.0
  0
LINE
  5
133
330
1B
100
AcDbEntity
 67
     1
  8
0
  6
Continuous
 62
     7
370
    25
100
AcDbLine
 10
-187.192235936
 20
-20.0
 30
0.0
 11
-187.192235936
 21
-19.1723803318
 31
0.0
  0
LINE
  5
134
330
1B
100
AcDbEntity
 67
     1
  8
0
  6
Continuous
 62
     7
370
    25
100
AcDbLine
 10
187.192235936
 20
-20.0
 30
0.0
 11
187.192235936
 21
-19.1723803318
 31
0.0
  0
LINE
  5
135
330
1B
100
AcDbEntity
 67
     1
  8
0
  6
Continuous
 62
     7
370
    25
100
AcDbLine
 10
-115.0
 20
-15.0
 30
0.0
 11
115.0
 21
-15.0
 31
0.0
  0
LINE
  5
136
330
1B
100
AcDbEntity
 67
     1
  8
0
  6
Continuous
 62
     7
370
    25
100
AcDbLine
 10
187.192235936
 20
-20.0
 30
0.0
 11
-187.192235936
 21
-20.0
 31
0.0
  0
ARC
  5
137
330
1B
100
AcDbEntity
 67
     1
  8
0
  6
Continuous
 62
     7
370
    25
100
AcDbCircle
 10
196.515055813
 20
-10.9180117438
 30
0.0
 40
1.55416514620646
100
AcDbArc
 50
247.6282651239
 51
284.0995120886
  0
ARC
  5
138
330
1B
100
AcDbEntity
 67
     1
  8
0
  6
Continuous
 62
     7
370
    25
100
AcDbCircle
 10
-196.515055813
 20
-10.9180117438
 30
0.0
 40
1.554165146206383
100
AcDbArc
 50
255.9004879114
 51
292.3717348761
  0
ARC
  5
139
330
1B
100
AcDbEntity
 67
     1
  8
0
  6
Continuous
 62
     7
370
    25
100
AcDbCircle
 10
187.192235936
 20
-10.1723803318
 30
0.0
 40
8.999999999999973
100
AcDbArc
 50
270.0
 51
345.9637565321
  0
ARC
  5
13A
330
1B
100
AcDbEntity
 67
     1
  8
0
  6
Continuous
 62
     7
370
    25
100
AcDbCircle
 10
-187.192235936
 20
-10.1723803318
 30
0.0
 40
9.000000000000043
100
AcDbArc
 50
194.0362434679
 51
270.0
  0
ARC
  5
13B
330
1B
100
AcDbEntity
 67
     1
  8
0
  6
Continuous
 62
     7
370
    25
100
AcDbCircle
 10
-115.0
 20
-5.1723803318
 30
0.0
 40
10.99999999999998
100
AcDbArc
 50
180.0
 51
270.0
  0
ARC
  5
13C
330
1B
100
AcDbEntity
 67
     1
  8
0
  6
Continuous
 62
     7
370
    25
100
AcDbCircle
 10
115.0
 20
-5.1723803318
 30
0.0
 40
11.00000000000001
100
AcDbArc
 50
270.0
 51
0.0
  0
ARC
  5
13D
330
1B
100
AcDbEntity
 67
     1
  8
0
  6
Continuous
 62
     7
370
    25
100
AcDbCircle
 10
-125.7574287447
 20
-3.5928136183
 30
0.0
 40
1.598083795047208
100
AcDbArc
 50
261.2693943887
 51
298.2916959581
  0
ARC
  5
13E
330
1B
100
AcDbEntity
 67
     1
  8
0
  6
Continuous
 62
     7
370
    25
100
AcDbCircle
 10
125.7574287447
 20
-3.5928136183
 30
0.0
 40
1.598083795047248
100
AcDbArc
 50
241.7083040419
 51
278.7306056113
  0
ARC
  5
13F
330
1B
100
AcDbEntity
 67
     1
  8
0
  6
Continuous
 62
     7
370
    25
100
AcDbCircle
 10
-115.0
 20
-5.0
 30
0.0
 40
9.99999999999999
100
AcDbArc
 50
180.0
 51
270.0
  0
ARC
  5
140
330
1B
100
AcDbEntity
 67
     1
  8
0
  6
Continuous
 62
     7
370
    25
100
AcDbCircle
 10
115.0
 20
-5.0
 30
0.0
 40
10.0
100
AcDbArc
 50
270.0
 51
0.0
  0
ARC
  5
141
330
1B
100
AcDbEntity
 67
     1
  8
0
  6
Continuous
 62
     7
370
    25
100
AcDbCircle
 10
-187.192235936
 20
-10.0
 30
0.0
 40
10.00000000000003
100
AcDbArc
 50
194.0362434679
 51
270.0
  0
ARC
  5
142
330
1B
100
AcDbEntity
 67
     1
  8
0
  6
Continuous
 62
     7
370
    25
100
AcDbCircle
 10
187.192235936
 20
-10.0
 30
0.0
 40
10.00000000000004
100
AcDbArc
 50
270.0
 51
345.9637565321
  0
VIEWPORT
  5
360
330
1B
100
AcDbEntity
 67
     1
  8
0
100
AcDbViewport
 10
0.0
 20
0.0
 30
0.0
 40
205.6
 41
156.0
 68
     1
 69
     1
 12
0.0
 22
0.0
 13
0.0
 23
0.0
 14
10.0
 24
10.0
 15
10.0
 25
10.0
 16
0.0
 26
0.0
 36
1.0
 17
0.0
 27
0.0
 37
0.0
 42
50.0
 43
0.0
 44
0.0
 45
309.5719844358
 50
0.0
 51
0.0
 72
   100
 90
   557152
  1

281
     0
 71
     1
 74
     0
110
0.0
120
0.0
130
0.0
111
1.0
121
0.0
131
0.0
112
0.0
122
1.0
132
0.0
 79
     0
146
0.0
  0
ENDSEC
  0
SECTION
  2
OBJECTS
  0
DICTIONARY
  5
C
330
0
100
AcDbDictionary
281
     1
  3
ACAD_GROUP
350
D
  3
ACAD_LAYOUT
350
1A
  3
ACAD_MLINESTYLE
350
17
  3
ACAD_PLOTSETTINGS
350
19
  3
ACAD_PLOTSTYLENAME
350
E
  3
ACAD_SCALELIST
350
47
  0
DICTIONARY
  5
D
102
{ACAD_REACTORS
330
C
102
}
330
C
100
AcDbDictionary
281
     1
  0
DICTIONARY
  5
1A
102
{ACAD_REACTORS
330
C
102
}
330
C
100
AcDbDictionary
281
     1
  3
_Back
350
26
  3
_Bottom
350
1CA
  3
_Dimetric
350
2FB
  3
_Isometric
350
20E
  3
_Left
350
186
  3
_Right
350
1A8
  3
_Top
350
1E
  3
_Trimetric
350
28B
  3
Model
350
22
  0
DICTIONARY
  5
17
102
{ACAD_REACTORS
330
C
102
}
330
C
100
AcDbDictionary
281
     1
  3
Standard
350
18
  0
DICTIONARY
  5
19
102
{ACAD_REACTORS
330
C
102
}
330
C
100
AcDbDictionary
281
     1
  0
ACDBDICTIONARYWDFLT
  5
E
102
{ACAD_REACTORS
330
C
102
}
330
C
100
AcDbDictionary
281
     1
  3
Normal
350
F
100
AcDbDictionaryWithDefault
340
F
  0
DICTIONARY
  5
47
102
{ACAD_REACTORS
330
C
102
}
330
C
100
AcDbDictionary
281
     1
  3
A0
350
48
  3
A1
350
49
  3
A2
350
4A
  3
A3
350
4B
  3
A4
350
4C
  3
A5
350
4D
  3
A6
350
4E
  3
A7
350
4F
  3
A8
350
50
  3
A9
350
51
  3
B0
350
52
  3
B1
350
53
  3
B2
350
54
  3
B3
350
55
  3
B4
350
56
  3
B5
350
57
  3
B6
350
58
  3
B7
350
59
  3
B8
350
5A
  3
B9
350
5B
  3
C0
350
5C
  3
C1
350
5D
  3
C2
350
5E
  3
C3
350
5F
  3
C4
350
60
  3
C5
350
61
  3
C6
350
62
  3
C7
350
63
  3
C8
350
64
  3
C9
350
65
  3
D0
350
66
  3
D1
350
67
  3
D2
350
68
  0
LAYOUT
  5
26
102
{ACAD_REACTORS
330
1A
102
}
330
1A
100
AcDbPlotSettings
  1

  2
none_device
  4
ISO_A4_(210.00_x_297.00_MM)
  6

 40
7.5
 41
20.0
 42
7.5
 43
20.0
 44
210.0
 45
297.0
 46
0.0
 47
0.0
 48
0.0
 49
0.0
140
0.0
141
0.0
142
1.0
143
1.5564202335
 70
   688
 72
     1
 73
     1
 74
     1
  7

 75
     0
147
0.6425
148
200.0
149
20.0
100
AcDbLayout
  1
_Back
 70
     1
 71
     2
 10
0.0
 20
0.0
 11
0.0
 21
0.0
 12
0.0
 22
0.0
 32
0.0
 14
0.0
 24
0.0
 34
0.0
 15
0.0
 25
0.0
 35
0.0
146
0.0
 13
0.0
 23
0.0
 33
0.0
 16
1.0
 26
0.0
 36
0.0
 17
0.0
 27
1.0
 37
0.0
 76
     0
330
23
331
362
  0
LAYOUT
  5
1CA
102
{ACAD_REACTORS
330
1A
102
}
330
1A
100
AcDbPlotSettings
  1

  2
none_device
  4
ISO_A4_(210.00_x_297.00_MM)
  6

 40
7.5
 41
20.0
 42
7.5
 43
20.0
 44
210.0
 45
297.0
 46
0.0
 47
0.0
 48
0.0
 49
0.0
140
0.0
141
0.0
142
1.0
143
1.5564202335
 70
   688
 72
     1
 73
     1
 74
     1
  7

 75
     0
147
0.6425
148
200.0
149
20.0
100
AcDbLayout
  1
_Bottom
 70
     1
 71
     5
 10
0.0
 20
0.0
 11
0.0
 21
0.0
 12
0.0
 22
0.0
 32
0.0
 14
0.0
 24
0.0
 34
0.0
 15
0.0
 25
0.0
 35
0.0
146
0.0
 13
0.0
 23
0.0
 33
0.0
 16
1.0
 26
0.0
 36
0.0
 17
0.0
 27
1.0
 37
0.0
 76
     0
330
1C9
331
368
  0
LAYOUT
  5
2FB
102
{ACAD_REACTORS
330
1A
102
}
330
1A
100
AcDbPlotSettings
  1

  2
none_device
  4
ISO_A4_(210.00_x_297.00_MM)
  6

 40
7.5
 41
20.0
 42
7.5
 43
20.0
 44
210.0
 45
297.0
 46
0.0
 47
0.0
 48
0.0
 49
0.0
140
0.0
141
0.0
142
1.0
143
1.5564202335
 70
   688
 72
     1
 73
     1
 74
     1
  7

 75
     0
147
0.6425
148
200.0
149
20.0
100
AcDbLayout
  1
_Dimetric
 70
     1
 71
     8
 10
0.0
 20
0.0
 11
0.0
 21
0.0
 12
0.0
 22
0.0
 32
0.0
 14
0.0
 24
0.0
 34
0.0
 15
0.0
 25
0.0
 35
0.0
146
0.0
 13
0.0
 23
0.0
 33
0.0
 16
1.0
 26
0.0
 36
0.0
 17
0.0
 27
1.0
 37
0.0
 76
     0
330
2FA
331
36E
  0
LAYOUT
  5
20E
102
{ACAD_REACTORS
330
1A
102
}
330
1A
100
AcDbPlotSettings
  1

  2
none_device
  4
ISO_A4_(210.00_x_297.00_MM)
  6

 40
7.5
 41
20.0
 42
7.5
 43
20.0
 44
210.0
 45
297.0
 46
0.0
 47
0.0
 48
0.0
 49
0.0
140
0.0
141
0.0
142
1.0
143
1.5564202335
 70
   688
 72
     1
 73
     1
 74
     1
  7

 75
     0
147
0.6425
148
200.0
149
20.0
100
AcDbLayout
  1
_Isometric
 70
     1
 71
     6
 10
0.0
 20
0.0
 11
0.0
 21
0.0
 12
0.0
 22
0.0
 32
0.0
 14
0.0
 24
0.0
 34
0.0
 15
0.0
 25
0.0
 35
0.0
146
0.0
 13
0.0
 23
0.0
 33
0.0
 16
1.0
 26
0.0
 36
0.0
 17
0.0
 27
1.0
 37
0.0
 76
     0
330
20D
331
36A
  0
LAYOUT
  5
186
102
{ACAD_REACTORS
330
1A
102
}
330
1A
100
AcDbPlotSettings
  1

  2
none_device
  4
ISO_A4_(210.00_x_297.00_MM)
  6

 40
7.5
 41
20.0
 42
7.5
 43
20.0
 44
210.0
 45
297.0
 46
0.0
 47
0.0
 48
0.0
 49
0.0
140
0.0
141
0.0
142
1.0
143
1.5564202335
 70
   688
 72
     1
 73
     1
 74
     1
  7

 75
     0
147
0.6425
148
200.0
149
20.0
100
AcDbLayout
  1
_Left
 70
     1
 71
     3
 10
0.0
 20
0.0
 11
0.0
 21
0.0
 12
0.0
 22
0.0
 32
0.0
 14
0.0
 24
0.0
 34
0.0
 15
0.0
 25
0.0
 35
0.0
146
0.0
 13
0.0
 23
0.0
 33
0.0
 16
1.0
 26
0.0
 36
0.0
 17
0.0
 27
1.0
 37
0.0
 76
     0
330
185
331
364
  0
LAYOUT
  5
1A8
102
{ACAD_REACTORS
330
1A
102
}
330
1A
100
AcDbPlotSettings
  1

  2
none_device
  4
ISO_A4_(210.00_x_297.00_MM)
  6

 40
7.5
 41
20.0
 42
7.5
 43
20.0
 44
210.0
 45
297.0
 46
0.0
 47
0.0
 48
0.0
 49
0.0
140
0.0
141
0.0
142
1.0
143
1.5564202335
 70
   688
 72
     1
 73
     1
 74
     1
  7

 75
     0
147
0.6425
148
200.0
149
20.0
100
AcDbLayout
  1
_Right
 70
     1
 71
     4
 10
0.0
 20
0.0
 11
0.0
 21
0.0
 12
0.0
 22
0.0
 32
0.0
 14
0.0
 24
0.0
 34
0.0
 15
0.0
 25
0.0
 35
0.0
146
0.0
 13
0.0
 23
0.0
 33
0.0
 16
1.0
 26
0.0
 36
0.0
 17
0.0
 27
1.0
 37
0.0
 76
     0
330
1A7
331
366
  0
LAYOUT
  5
1E
102
{ACAD_REACTORS
330
1A
102
}
330
1A
100
AcDbPlotSettings
  1

  2
none_device
  4
ISO_A4_(210.00_x_297.00_MM)
  6

 40
7.5
 41
20.0
 42
7.5
 43
20.0
 44
210.0
 45
297.0
 46
0.0
 47
0.0
 48
0.0
 49
0.0
140
0.0
141
0.0
142
1.0
143
1.5564202335
 70
   688
 72
     1
 73
     1
 74
     1
  7

 75
     0
147
0.6425
148
200.0
149
20.0
100
AcDbLayout
  1
_Top
 70
     1
 71
     1
 10
-231.1284046693
 20
-31.673151751
 11
231.1284046693
 21
295.1750972763
 12
0.0
 22
0.0
 32
0.0
 14
-200.0
 24
-20.0
 34
0.0
 15
200.0
 25
0.0
 35
0.0
146
0.0
 13
0.0
 23
0.0
 33
0.0
 16
1.0
 26
0.0
 36
0.0
 17
0.0
 27
1.0
 37
0.0
 76
     0
330
1B
331
360
  0
LAYOUT
  5
28B
102
{ACAD_REACTORS
330
1A
102
}
330
1A
100
AcDbPlotSettings
  1

  2
none_device
  4
ISO_A4_(210.00_x_297.00_MM)
  6

 40
7.5
 41
20.0
 42
7.5
 43
20.0
 44
210.0
 45
297.0
 46
0.0
 47
0.0
 48
0.0
 49
0.0
140
0.0
141
0.0
142
1.0
143
1.5564202335
 70
   688
 72
     1
 73
     1
 74
     1
  7

 75
     0
147
0.6425
148
200.0
149
20.0
100
AcDbLayout
  1
_Trimetric
 70
     1
 71
     7
 10
0.0
 20
0.0
 11
0.0
 21
0.0
 12
0.0
 22
0.0
 32
0.0
 14
0.0
 24
0.0
 34
0.0
 15
0.0
 25
0.0
 35
0.0
146
0.0
 13
0.0
 23
0.0
 33
0.0
 16
1.0
 26
0.0
 36
0.0
 17
0.0
 27
1.0
 37
0.0
 76
     0
330
28A
331
36C
  0
LAYOUT
  5
22
102
{ACAD_REACTORS
330
1A
102
}
330
1A
100
AcDbPlotSettings
  1

  2
none_device
  4
ANSI_A_(11.00_x_8.50_Inches)
  6

 40
6.35
 41
19.05
 42
6.35000508
 43
19.05000254
 44
279.4
 45
215.9
 46
133.34999746
 47
88.89999873
 48
0.0
 49
0.0
140
0.0
141
0.0
142
0.027225
143
1.0
 70
  1696
 72
     0
 73
     0
 74
     0
  7

 75
     0
147
0.0179189148
148
-1300.4909072572
149
0.0
100
AcDbLayout
  1
Model
 70
     1
 71
     0
 10
0.0
 20
0.0
 11
420.0
 21
297.0
 12
0.0
 22
0.0
 32
0.0
 14
-200.0
 24
-6.000103215
 34
0.0
 15
200.0
 25
6.000103215
 35
0.0
146
0.0
 13
0.0
 23
0.0
 33
0.0
 16
1.0
 26
0.0
 36
0.0
 17
0.0
 27
1.0
 37
0.0
 76
     0
330
1F
331
29
  0
MLINESTYLE
  5
18
102
{ACAD_REACTORS
330
17
102
}
330
17
100
AcDbMlineStyle
  2
Standard
 70
     0
  3

 62
   256
 51
90.0
 52
90.0
 71
     2
 49
0.5
 62
   256
  6
BYLAYER
 49
-0.5
 62
   256
  6
BYLAYER
  0
ACDBPLACEHOLDER
  5
F
102
{ACAD_REACTORS
330
E
102
}
330
E
  0
SCALE
  5
48
102
{ACAD_REACTORS
330
47
102
}
330
47
100
AcDbScale
 70
     0
300
1:1
140
1.0
141
1.0
290
     1
  0
SCALE
  5
49
102
{ACAD_REACTORS
330
47
102
}
330
47
100
AcDbScale
 70
     0
300
1:2
140
1.0
141
2.0
290
     0
  0
SCALE
  5
4A
102
{ACAD_REACTORS
330
47
102
}
330
47
100
AcDbScale
 70
     0
300
1:4
140
1.0
141
4.0
290
     0
  0
SCALE
  5
4B
102
{ACAD_REACTORS
330
47
102
}
330
47
100
AcDbScale
 70
     0
300
1:5
140
1.0
141
5.0
290
     0
  0
SCALE
  5
4C
102
{ACAD_REACTORS
330
47
102
}
330
47
100
AcDbScale
 70
     0
300
1:8
140
1.0
141
8.0
290
     0
  0
SCALE
  5
4D
102
{ACAD_REACTORS
330
47
102
}
330
47
100
AcDbScale
 70
     0
300
1:10
140
1.0
141
10.0
290
     0
  0
SCALE
  5
4E
102
{ACAD_REACTORS
330
47
102
}
330
47
100
AcDbScale
 70
     0
300
1:16
140
1.0
141
16.0
290
     0
  0
SCALE
  5
4F
102
{ACAD_REACTORS
330
47
102
}
330
47
100
AcDbScale
 70
     0
300
1:20
140
1.0
141
20.0
290
     0
  0
SCALE
  5
50
102
{ACAD_REACTORS
330
47
102
}
330
47
100
AcDbScale
 70
     0
300
1:30
140
1.0
141
30.0
290
     0
  0
SCALE
  5
51
102
{ACAD_REACTORS
330
47
102
}
330
47
100
AcDbScale
 70
     0
300
1:40
140
1.0
141
40.0
290
     0
  0
SCALE
  5
52
102
{ACAD_REACTORS
330
47
102
}
330
47
100
AcDbScale
 70
     0
300
1:50
140
1.0
141
50.0
290
     0
  0
SCALE
  5
53
102
{ACAD_REACTORS
330
47
102
}
330
47
100
AcDbScale
 70
     0
300
1:100
140
1.0
141
100.0
290
     0
  0
SCALE
  5
54
102
{ACAD_REACTORS
330
47
102
}
330
47
100
AcDbScale
 70
     0
300
2:1
140
2.0
141
1.0
290
     0
  0
SCALE
  5
55
102
{ACAD_REACTORS
330
47
102
}
330
47
100
AcDbScale
 70
     0
300
4:1
140
4.0
141
1.0
290
     0
  0
SCALE
  5
56
102
{ACAD_REACTORS
330
47
102
}
330
47
100
AcDbScale
 70
     0
300
8:1
140
8.0
141
1.0
290
     0
  0
SCALE
  5
57
102
{ACAD_REACTORS
330
47
102
}
330
47
100
AcDbScale
 70
     0
300
10:1
140
10.0
141
1.0
290
     0
  0
SCALE
  5
58
102
{ACAD_REACTORS
330
47
102
}
330
47
100
AcDbScale
 70
     0
300
100:1
140
100.0
141
1.0
290
     0
  0
SCALE
  5
59
102
{ACAD_REACTORS
330
47
102
}
330
47
100
AcDbScale
 70
     0
300
1/128" = 1'-0"
140
0.0078125
141
12.0
290
     0
  0
SCALE
  5
5A
102
{ACAD_REACTORS
330
47
102
}
330
47
100
AcDbScale
 70
     0
300
1/64" = 1'-0"
140
0.015625
141
12.0
290
     0
  0
SCALE
  5
5B
102
{ACAD_REACTORS
330
47
102
}
330
47
100
AcDbScale
 70
     0
300
1/32" = 1'-0"
140
0.03125
141
12.0
290
     0
  0
SCALE
  5
5C
102
{ACAD_REACTORS
330
47
102
}
330
47
100
AcDbScale
 70
     0
300
1/16" = 1'-0"
140
0.0625
141
12.0
290
     0
  0
SCALE
  5
5D
102
{ACAD_REACTORS
330
47
102
}
330
47
100
AcDbScale
 70
     0
300
3/32" = 1'-0"
140
0.09375
141
12.0
290
     0
  0
SCALE
  5
5E
102
{ACAD_REACTORS
330
47
102
}
330
47
100
AcDbScale
 70
     0
300
1/8" = 1'-0"
140
0.125
141
12.0
290
     0
  0
SCALE
  5
5F
102
{ACAD_REACTORS
330
47
102
}
330
47
100
AcDbScale
 70
     0
300
3/16" = 1'-0"
140
0.1875
141
12.0
290
     0
  0
SCALE
  5
60
102
{ACAD_REACTORS
330
47
102
}
330
47
100
AcDbScale
 70
     0
300
1/4" = 1'-0"
140
0.25
141
12.0
290
     0
  0
SCALE
  5
61
102
{ACAD_REACTORS
330
47
102
}
330
47
100
AcDbScale
 70
     0
300
3/8" = 1'-0"
140
0.375
141
12.0
290
     0
  0
SCALE
  5
62
102
{ACAD_REACTORS
330
47
102
}
330
47
100
AcDbScale
 70
     0
300
1/2" = 1'-0"
140
0.5
141
12.0
290
     0
  0
SCALE
  5
63
102
{ACAD_REACTORS
330
47
102
}
330
47
100
AcDbScale
 70
     0
300
3/4" = 1'-0"
140
0.75
141
12.0
290
     0
  0
SCALE
  5
64
102
{ACAD_REACTORS
330
47
102
}
330
47
100
AcDbScale
 70
     0
300
1" = 1'-0"
140
1.0
141
12.0
290
     0
  0
SCALE
  5
65
102
{ACAD_REACTORS
330
47
102
}
330
47
100
AcDbScale
 70
     0
300
1-1/2" = 1'-0"
140
1.5
141
12.0
290
     0
  0
SCALE
  5
66
102
{ACAD_REACTORS
330
47
102
}
330
47
100
AcDbScale
 70
     0
300
3" = 1'-0"
140
3.0
141
12.0
290
     0
  0
SCALE
  5
67
102
{ACAD_REACTORS
330
47
102
}
330
47
100
AcDbScale
 70
     0
300
6" = 1'-0"
140
6.0
141
12.0
290
     0
  0
SCALE
  5
68
102
{ACAD_REACTORS
330
47
102
}
330
47
100
AcDbScale
 70
     0
300
1'-0" = 1'-0"
140
12.0
141
12.0
290
     0
  0
ENDSEC
  0
EOF
